close

Вход

Забыли?

вход по аккаунту

?

Чайковский Пётр Ильич - Щелкунчик, Танец феи Драже. Ор. 71

код для вставкиСкачать
Щелкунчик, Танец феи Драже. Ор. 71
!Обозначения:
!Co = Cdim
!Размер: 4/4
[ ^ ^ ^ ^ ^ ^ ^ ^ ^ ^ ^ ^
e|--------1-----1------|------------------|--------------------|
b|-----------3------5--|--2---3---4--4--4-|-3--3--3---2--2--2--|
g|@-------2------------|--3---4---5--5--5-|-4--4--4---3--3--3--|
D|@---0---------0------|--2---3---4--4--4-|-3--3--3---2--2--2--|
A|---------------------|------------------|--------------------|
E|------------------3--|------------------|--------------------|]
> Dm Gm6 C#o Do Co Bo Bbo
[ ^ ^ ^ ^ ^ ^ ^ ^ ^ ^ ^ ^
e--------------------------|-----------------0-|-6--5---1--1--1--|
b-----3-----3--------------|-----6---3---6-----|-5--6---0--0--0--|
g--2-----3-----2-----------|-------------------|-6--7---1--1--1--|
D--0-----------0-----------|-------------------|-5--7---0--0--0--|
A------------------5-3-----|-------------------|----5------------|
E--------3-------------6-5-|-4---4-------4-----|-----------------|]
> Dm Gm Dm Bb7 Bbo Dm Fo
[ ^ ^ ^ ^ ^ ^ ^ ^
e--0--0--0------------|-----0-----0----------------|
b--1--1--1---3--3--3--|--2-----3-----2-------------|
g--2--2--2---1--1--1--|--2-----3-----2--2-p0-------|
D--2--2--2------------|--2-----3-----2--------3-p2-|
A------------2--2--2--|----------------------------|
E------------0--0--0--|----------------------------|]
> Am E7 A Bb A
[ ^ ^ ^ ^ ^ ^ ^ ^ ^ ^ ^ ^
e------1-----1------|------------------|--------------------|
b---------3------5--|--2---3---4--4--4-|-3--3--3---2--2--2--|
g------2------------|--3---4---5--5--5-|-4--4--4---3--3--3--|
D--0---------0------|--2---3---4--4--4-|-3--3--3---2--2--2--|
A-------------------|------------------|--------------------|
E----------------3--|------------------|--------------------|]
> Dm Gm6 C#o Do Co Bo Bbo
[ ^ ^ ^ ^ ^ ^ ^ ^ ^ ^ ^ ^
e------------------1---|------------------|-----------------|
b-----3-----3------3---|------3--0--3---2-|-----1-----1---0-|
g--2-----3-----2---2---|----------------2-|--------2------0-|
D--0-----------0---0---|----------------2-|-0---0-----0---0-|
A----------------------|----------------0-|-----------------|
E--------3-------------|--0---0-----0-----|---------------3-|]
> Dm Gm Dm E7 A D7 G
[ _________________ ___________________
^ ^ ^ ^ (1)^ ^ ^ ^ (2) ^ ^ ^ ^ !
e-------------------|----------------5-|------------5-|-----|
b-------------------|--------6-----5---|----------5---|-----|
g------3--0--3---2--|------7-----6----@|----7-----6---|--7--|
D------2-----2---3--|----7------------@|----7-----7---|--7--|
A--3---3-----3---3--|--5---------------|----5-----7---|--5--|
E----------------1--|----------5-------|--------------|-----|]
> C7 F Dm A Dm A Dm
-
!Обозначения:
!e - Восьмушка
!s - 1/16
[ e e e e e e e e e s s e e e e s s e
(Повторить)
e:---0-----2-----3----------||----3-0-3--2-|-----0---------|
B:---------------------4----||-------------|--4-----3-3-3--|
G:---0-----2-----3-----2---*||*------------|---------------|
D:-------------------------*||*------------|---------------|
A:--------------------------||----2------0-|------------2--|
E:0-----0-----0-----0-------||-0------0----|--2--3--0------|
s s e s s e s s s s e s s e s s e e e e s s e
e:---------------|---0---0---------|--------------|-------3-3-3--|
B:-2-2-2--1-1-1--|-0---1----0------|--------------|-1--0---------|
G:---------------|-----------------|----0----0----|--------------|
D:---------------|-----------------|------2-----4-|----2------2--|
A:-----1------0--|-----0-------3-2-|-1-------0----|-------1------|
E:-0------0------|-0--------0------|--------------|-3------------|
CII--------|
s s e s s e s s s s e e s s e e e e s s e
e:-2-2-2--0-0-0--|---2---2---------|----3-0-3--2--|----0---------|
B:---------------|-4---5---4-------|----0---------|-4-----3-3-3--|
G:---------------|-----------------|-----------2--|----0------4--|
D:-----4------4--|-----------------|--------------|-4-----2------|
A:-2------4------|-2---3---2-------|--------------|--------------|
E:---------------|------------3-2--|-0------0-----|--------------|
s s e s s e s s s s e s s e s s e e e s s e e
e:---------------|---0---0--------|----0---0-----|-------------|
B:-2-2-2--1-1-1--|-0---1---0------|------2----4--|----3-0-3--2-|
G:-----3------2--|-----2----------|--------------|-------------|
D:-2------2------|-2-------2--2-0-|--------4-----|-------------|
A:---------------|----------------|-4------------|-2-----------|
E:---------------|----------------|--------------|--------0----|
e s s e e e s s e
e:-------------|---------------------||
B:----1---1--0-|------0--------------||
G:------2------|--------------------*||
D:--------0----|----1---2-(Пауза1/8)*||
A:-0-----------|---------------------||
E:-------------|-3--2---0------------||]
-
|-----0-------2-------3---------------0-------2-------3-------------|
|-----0-------1-------2-------4-------0-------1-------2-------4-----|
|-----0-------2-------3-------5-------0-------2-------3-------5-----|
|-2-------2-------2-------2---4---2-------2-------2-------2---4-----|
|-------------------------------------------------------------------|
|-------------------------------------------------------------------|
|---------------------------------------------------0---0-----------|
|-----8---8---7---4---5---------------------------0---1---0---------|
|-------9-----------------7-7-7---6-6-6---5-5-5---0---2---0---------|
|-----9---9---7---4---5---6-6-6---5-5-5---4-4-4--------------2-0----|
|-7-------7-------7-------7-------7-------7----------------------3-2|
|-------------------------------------------------------------------|
|-------------------------3-3-3---1-1-1---0-0-0-----2---2-----------|
|---------------------0---2-2-2---0-0-0---1-1-1---4---5---4---------|
|-----5-2-5---4---5---0---3-3-3---1-1-1---2-2-2---4---3---4---------|
|-----3---3---3---4---2---2-2-2---0-0-0---4-4-4---------------------|
|-1---------------6------------------------------------------2-0----|
|----------------------------------------------------------------3-2|
|---------------------------------------------------0---0-----------|
|-----8---8---7---4---5---------------------------0---1---0---------|
|-------9-----------------7-7-7---6-6-6---5-5-5---0---2---0--0------|
|-----9---9---7---4---5---6-6-6---5-5-5---4-4-4----------------4-2-0|
|---------7-------7-------7-------7-------7-------------------------|
|-0-----------------------------------------------------------------|
|-------------------------------------------------------------------|
|-------------------------------------------------------------------|
|--------------------------------------------------------4----------|
|-------------4---------------20--------------0---------4-----------|
|-4---7-4-7---6764----5-2-5---4-420---3-0-3---2320-----6--7---------|
|-----6---6---5---7---4---4---3-------2---2---3---3---7-------------|
|---------------------------------------------------0---0-----------|
|-----8---8---7---4---5---------------------------0---1---0---------|
|-------9-----------------7-7-7---6-6-6---5-5-5---0---2---0---------|
|-----9---9---7---4---5---6-6-6---5-5-5---4-4-4--------------2-0----|
|-7-------7-------7-------7-------7-------7----------------------3-2|
|-------------------------------------------------------------------|
|-------------------------3-3-3---1-1-1---0-0-0-----2---2-----------|
|---------------------0---2-2-2---0-0-0---1-1-1---4---5---4---------|
|-----5-2-5---4---5---0---3-3-3---1-1-1---2-2-2---4---3---4---------|
|-----3---3---3---4---2---2-2-2---0-0-0---4-4-4---------------------|
|-1---------------6------------------------------------------2-0----|
|----------------------------------------------------------------3-2|
|---------------------------------------------------0---0-----------|
|-----8---8---7---4---5---------------------------0---1---0--8-7-5--|
|-------9-----------------7-7-7---6-6-6---5-5-5---0---2---0--------7|
|-----9---9---7---4---5---6-6-6---5-5-5---4-4-4---------------------|
|---------7-------7-------7-------7-------7-------------------------|
|-0-----------------------------------------------------------------|
?
|--------------------------------------------------------7----------|
|-------------7---------------5---------------3---------7-----------|
|-6---9-6-9---8986----7-4-7---6765----5-2-5---4542-----8--9---------|
|-----8---8---7---9---6---6---5---7---4---4---5---5---9-------------|
|-------------------------------------------------------------------|
|-------------------------------------------------------------------|
|---------------------------------------------------0---0-----------|
|-----8---8---7---4---5---------------------------0---1---0---------|
|-------9-----------------7-7-7---6-6-6---5-5-5---0---2---0---------|
|-----9---9---7---4---5---6-6-6---5-5-5---4-4-4--------------2-0----|
|-7-------7-------7-------7-------7-------7----------------------3-2|
|-------------------------------------------------------------------|
|-------------------------3-3-3---1-1-1---0-0-0-----2---2-----------|
|---------------------0---2-2-2---0-0-0---1-1-1---4---5---4---------|
|-----5-2-5---4---5---0---3-3-3---1-1-1---2-2-2---4---3---4---------|
|-----3---3---3---4---2---2-2-2---0-0-0---4-4-4---------------------|
|-1---------------6------------------------------------------2-0----|
|----------------------------------------------------------------3-2|
|------------------------------------------------------------0--(12)||
|-----------------------------------------------------------0---(12)||
|--------------------------------------------------------4-0----(12)||
|-------------4---------------20--------------0---------4-2---------||
|-----7-4-7---6764----5-2-5---4-420---3-0-3---2320-----6------------||
|-0---6---6---5---7---4---4---3-------2---2---3---3---7-------------||
-
!(для 2-ух гитар)
![ | | | | | | | |] : Четверть
|---------------------------------|----| 0/
![|-----0-------1-------2-------1---|----|] [/0] : Повторить последний такт
|-----0-------2-------3-------2---|-0/-|
|-2-------2-------2-------2-------|-/0-|
|---------------------------------|----|
|---------------------------------|----|
|
|-----0-------2-------3-----------|----|
|-----------------------------4---|----|
|---------------------------------|-0/-|
|---------------------------------|-/0-|
|---------------------------------|----|
|---------------------------------|----|
|-------------------------------------0-------2---0---2---3-------|
|-----0-------1-------2-------3-------2-------4---5---5---5-------|
|-----0-------2-------3-------4-----------------------------------|
|-2-------2-------2-------2-------2-------2-------------------20--|
|---------------------------------------------------------------321
|-----------------------------------------------------------------|
|
|---------------------------------------------------0---0---------|
|-----8---8---7---4---5---------------------------0---1---0-------|
|-------9-----------------7-7-7---6-6-6---5-5-5---0---2---0-------|
|-----9---9---7---4---5---6-6-6---5-5-5---4-4-4-------------------|
|-----------------------------------------------------------------|
|-----------------------------------------------------------------|
|---------------------------------------------------------------|
|---------------------------------------------------------------|
|---------------------------------------------------------------|
|-------------------------------4-------------------4---4-------|
1-------0---------------------------------------2---3---2---20--|
|---------------3-------2---------------2-------6-------------320
|
|-----------------------3-3-3---1-1-1---0-0-0-----2---2---------|
|-------------------0---2-2-2---0-0-0---1-1-1---4---5---4-------|
|---5-2-5---4---5---0---3-3-3---1-1-1---2-2-2---4---3---4-------|
|---3---3---3---4---2---2-2-2---0-0-0---4-4-4-------------------|
|---------------6-----------------------------------------------|
|---------------------------------------------------------------|
|-----------------------------------0-------2---0---2---3-------|
|---0-------1-------2-------3-------2-------4---5---5---5-------|
|---0-------2-------3-------4-----------------------------------|
|-------2-------2-------2-------2-------2-------------------5420|
|---------------------------------------------------------------4
0---------------------------------------------------------------|
|
|-------------------------------------------------0---0---------|
|---8---8---7---4---5---------------------------0---1---0-------|
|-----9-----------------7-7-7---6-6-6---5-5-5---0---2---0-------|
|---9---9---7---4---5---6-6-6---5-5-5---4-4-4-------------------|
|---------------------------------------------------------------|
|---------------------------------------------------------------|
|-----------------------------------------------------------2------|
|-----------------------------------------------------------1------|
|-----------------------------------------------------------2------|
|---4-------421-----2-------20------0-------0---------------0------|
4--------------42-------------420------------320-------------------|
|-----------------------------------------------3---2---0----------|
|
|------------------------------------------------------------------|
|--------------------------------------------------------------1---|
|------------------------------------------------------4------2----|
|-----------------------------------------------------4-----04-----|
|---7-4-7---6-------5-2-5---4-------3-0-3---2--------6--7----------|
|---6---6---5-------4---4---3-------2---2---3-------7--------------|
|----------------------------0---------------0----|
|----0-------1-------0------1-------04------1-----|
|---2-------2-------2------2-------2-------2------|
|-04------04------14------3-------4-------3-------|
|-------------------------------------------------|
|-------------------------------------------------|
|
|--------------------------------0---------------0|
|--------0-------1-------0------1-------04------1-|
|-------2-------2-------2------2-------2-------2--|
|-----14------04------14------3-------4-------3---|
|-------------------------------------------------|
|-------------------------------------------------|
|-----------3-------2-------3-------2----|
|--04------4-------4-------4-------4-----|
|-2------25------24------25------24------|
|4---------------------------------------|
|----------------------------------------|
|----------------------------------------|
|
|---------------3-------2-------3-------2|
|------04------4-------4-------4-------4-|
|-----2------25------24------25------24--|
|----4-----------------------------------|
|----------------------------------------|
|----------------------------------------|
|----2-------2-------2-------2--------|
|---3-------4-------3-------4---------|
|-25------24------25------24----------|
|-------------------------------------2
|---------------------------------20--|
|-----------------------------------32|
|
|------25-------57------5-------57----|
|-----3-------47-------7------47------|
|---------------------7---------------|
|-------------------------------------|
|-------------------------------------|
|-------------------------------------|
|-----------------------------------0-------2---0---2---3-------|
|---0-------1-------2-------3-------2-------4---5---5---5-------|
|---0-------2-------3-------4-----------------------------------|
2-------2-------2-------2-------2-------2-------------------20--|
|-------------------------------------------------------------321
|---------------------------------------------------------------|
|
|-------------------------------------------------0---0---------|
|---8---8---7---4---5---------------------------0---1---0-------|
|-----9-----------------7-7-7---6-6-6---5-5-5---0---2---0-------|
|---9---9---7---4---6---6-6-6---5-5-5---4-4-4-------------------|
|---------------------------------------------------------------|
|---------------------------------------------------------------|
|---------------------------------------------------------------|
|---------------------------------------------------------------|
|---------------------------------------------------------------|
|-------------------------------4-------------------4---4-------|
1-------0---------------------------------------2---3---2---20--|
|---------------3-------2---------------2-------6-------------320
|
|-----------------------3-3-3---1-1-1---0-0-0-----2---2---------|
|-------------------0---2-2-2---0-0-0---1-1-1---4---5---4-------|
|---5-2-5---4---5---0---3-3-3---1-1-1---2-2-2---4---3---4-------|
|---3---3---3---4---2---2-2-2---0-0-0---4-4-4-------------------|
|---------------6-----------------------------------------------|
|---------------------------------------------------------------|
|-----------------------------------0-------2---0---2---3-------|
|---0-------1-------2-------3-------2-------4---5---5---5-------|
|---0-------2-------3-------4-----------------------------------|
|-------2-------2-------2-------2-------2-------------------5420|
|---------------------------------------------------------------|
0---------------------------------------------------------------|
|
|--------------------------------------------------0---0--------|
|---8---8---7---4---5---------------------------0----1---0------|
|-----9-----------------7-7-7---6-6-6---5-5-5---0----2---0------|
|---9---9---7---4---5---6-6-6---5-5-5---4-4-4-------------------|
|---------------------------------------------------------------|
|---------------------------------------------------------------|
|---------------------------------------------------------------0-----|
|--------------------------------------------------------------0------|
|-------------------------------------------------------------0-------|
|----4-------421-----2-------20------0-------0---------------2--------|
|4--------------42-------------420------------320---------------------|
|------------------------------------------------3---2---0------------|
|
|------------------------------------------------------------------12-|
|-----------------------------------------------------------------12--|
|-------------------------------------------------------4--------12---|
|------------------------------------------------------4--------------|
|----7-4-7---6-------5-2-5---4-------3-0-3---2--------6--7------------|
|----6---6---5-------4---4---3-------2---2---3-------7----------------|
Документ
Категория
Ноты, аккорды
Просмотров
14
Размер файла
20 Кб
Теги
танец, Чайковский, щелкунчик, петр, драже, феи, ильич
1/--страниц
Пожаловаться на содержимое документа