close

Вход

Забыли?

вход по аккаунту

?

Черный Обелиск - Болезнь

код для вставкиСкачать
1994 - Стена
Болезнь
[E|--------0------0------0-----0-----0------0------0-----0|
B|------1------1------1-----1-----1------1------1-----1--|
G|----2------2------2-----2-----2------2------2-----2----| } n paз
D|----------------------------0--------------------------|
A|-0---------------------------------3------0------0-----|
E|-------3------2-----1----------------------------------|
E|--------0------0------0-----0-----0------0--------------0------|
B|------1------1------1-----1-----1------1-----1-0^1^0--0--------|
G|----2-----2------2-----2-----2------2-----2---------------2----|
D|---------------------------0-----------------------------------|
A|-0-------------------------------3------0----------------------|
E|------3------2-----1-------------------------------------------|
E|--------0------0------0-----0-----0------0---0-0-0-0-0--|
B|------1------1------1-----1-----1------1-----1-1-1-1-1--|
G|----2-----2------2-----2-----2------2-----2-------------|
D|---------------------------0----------------------------|
A|-0-------------------------------3------0---------------|
E|-------3------2-----1-----------------------------------|]
-
Текст:Люди души коптят на бездымном огне
И смеются от счастья, как дети.
А по чей-то сутулой, склоненной спине
Хлещет плетью отчаянный ветер.
Над шеренгой пустых обезличенных лиц
Плавно реют бездумные грезы.
А по крышам домов и по стенам больниц
Льются чьи то прозрачные слезы.
Тихо сердце стучит, это время мое,
Я поспешно седлаю коня.
Кон мой быстро домчит в те места, где поет
Желтый филин, встречая меня.
Хрупко светит луна, из хрустальных домов
Раздается то шепот, то смех.
Опускаюсь со дна, поднимаюсь на дно,
Растворяюсь, как кошка во тьме.
Из простого огня соткан клетчатый флаг
Также чисто, как льется вода.
Посмотри на меня, я подам тебе знак,
Ты со мною теперь навсегда.
...И сжималась рука, расширялся зрачок,
Мысли вялые шли чередой,
Время мчалось вперед как гигантский волчок
Сильно пущенный чей-то рукой.
Год за десять, и мимо вся жизнь пронеслась,
Мысли были и канули в вечность.
Ты и сам не заметил как нить порвалась...
Тишина, пустота, бесконечность...
Документ
Категория
Ноты, аккорды
Просмотров
4
Размер файла
2 Кб
Теги
черный, болезни, обелиск
1/--страниц
Пожаловаться на содержимое документа