close

Вход

Забыли?

вход по аккаунту

?

Черный Обелиск - Цезарь

код для вставкиСкачать
1994 - Память о прошлом, 1994 - Стена, 1997 - Чужие песни и несколько своих (Крупский Сотоварищи)
Цезарь !(А.Симаков)
> Am
[-----0-----0-----0-----0-----------0-----0-----0-----0------
-----1-----1-----1-----1-----------1-----1-----1-----1------
-----2-----2-----2-----2-----------2-----2-----2-----2------
------------------------------------------------------------
--0-----2-----3-----2-----------0-----2-----3-----4---------
------------------------------------------------------------
> Dm
-----1-----1-----1-----1-----------1-----1-----1-----1------
-----3-----3-----3-----3-----------3-----3-----3-----3------
-----2-----2-----2-----2-----------2-----2-----2-----2------
--0-----2-----3-----2-----------0-----2-----3-----2---------
------------------------------------------------------------
------------------------------------------------------------
> E
---0-----
---0-----
---1-----
---2-----
---2-----
---0-----]
>Am
Аве Цезарь, друг сердешный
Ну заходи, давно заждались.
>Dm
Нет не поздно, да конечно.
> E
Не развязывай сандалий.
Брось ты эту табуретку.
Эй, принесите гостю кресло.
Он у нас бывает редко,
Так пускай понежит чресло.
Пей, замерз ты как собака.
Угощайся, а-a-a не курим
Эй вы там, кончайте плакать
Мы потом добалагурим.
Тут у нас такие гости,
Украшение компаний.
Что не спится на погосте,
Или плохо закопали.
Или совесть беспокоит,
Иль соседи кровопийцы,
Или что-нибудь такое,
Что забыли летописцы
Или может не забыли,
Да писать про это тошно.
Знать за это и убили,
Император не святоша.
Без убийства он не может
Удержаться на маршруте.
А в тоске на смертном ложе
Ты мечтал о Марке Брутте.
Да мечтал а вышел кукишь
Эпитафией на прах мой.
Милосердия не купишь,
Не измеришь тетрадрахмой
Милосердие для слабых,
Сильным яду из флакона
Мне бы слабость, я тогда бы
Не стоял у Рубикона.
Так почему же, боже правый,
Ты играл со мною в прятки
Почему не дал отравы.
Тише, Цезарь, все в порядке
Ты у нас душа святая,
Ты борец не за награды
Что пора уже - светает
Так заходи, мы будем рады...
-
!(Табулатура)
!Это оригинальная версия Черного Обелиска,
!предыдущая больше смахивает на Крупский Сотоварищи
riff1:[E------------------------------------------------------
B------------------------------------------------------
G------------------------------------------------------
D---2---2---------------------2---2--------------------
A---2---2---------------------2---2--------------------
E---0---0---5-3-2-3--5-3-2-3--0---0---5-3-2-3--5-3-2-3-
E------------------------------------------------------
B------------------------------------------------------
G------------------------------------------------------
D---2---2---------------------2---2------------2-2-----
A---2---2---------------------2---2------------2-2-----
E---0---0---5-3-2-3--5-3-2-3--0---0---5-3-2-3--0-0-----]
riff2:[E-------------------------------------------
B-------------------------------------------
G-------------------------------------------
D---2---------4---------5---------4---------
A---2---------4---------5---------4---------
E---0--0-0-0--2--0-0-0--3--0-0-0--2--0-0-0--
E-------------------------------------------
B-------------------------------------------
G-------------------------------------------
D---2---------4---------5---------7---------
A---2---------4---------5---------7---------
E---0--0-0-0--2--0-0-0--3--0-0-0--5--0-0-0--
E-------------------------------------------
B-------------------------------------------
G---2---------4---------5---------4---------
D---2---------4---------5---------4---------
A---0--0-0-0--2--0-0-0--3--0-0-0--2--0-0-0--
E-------------------------------------------
E-------------------------------------------
B-------------------------------------------
G---2---------4---------5---------7---------
D---2---------4---------5---------7---------
A---0--0-0-0--2--0-0-0--3--0-0-0--5--0-0-0--
E-------------------------------------------]
riff3:[E-------------------------------------------
B-------------------------------------------
G-------------------------------------------
D---2---------4---------9---7---5---4------- } 2 раза
A---2---------4---------7---5---3---2-------
E---0--0-0-0--2--0-0-0----0---0---0---------
E------------------------ E------------------
B------------------------ B------------------
G------------------------ G------------------]
[D---2-------2-------4\5--] } 3 раза, а затем [D---2--2--2-2---2--]
[A---2-------2-------4\5-- A---2--2--2-2---2--
E---0--0-0--0--0-0--2\3-- E---0--0--0-0---0--]
!куплет (bass)
[G----------------------------------------------------------------------
D------------------------------------0---2---3---2---0---2---3---5-----
A---0---2---3---2---0---2---3---5------0---0---0---0---0---0---0---0---
E-----0---0---0---0---0---0---0---0------------------------------------]
Аве Цезарь, друг сердечный
Hу заходи давно заждались
Hет не поздно, да конечно
Hе развязывай сандалей
Брось ты эту табуретку
Ей!!! принесите гостю кресло
Он у нас бывает редко
Так пускай понежит чресло
[E---------------------------------
B---------------------------------
G---------------------------------
E---2-------4-------5-----4-------
A---2-------4-------5-----4-------
E---0-------2-------3-----2-------]
Тут у нас такие гости
[E---------------------------------------
B---------------------------------------
G---------------------------------------
D----2-----4-----4-----7----------------
A----2-----4-----5-----7----------------
E----0-----2-----3-----5----------------]
Укрошение компаний
[E-----------------------------
B-----------------------------
G----2--------4----5----4-----
D----2--------4----5----4-----
A----0--------2----3----2-----
E-----------------------------]
Что, не спится на погосте
[E-----------------------------
B-----------------------------
G---2-------4----3----7-------
D---2-------4----3----7-------
A---0-------2----5----5-------
E-----------------------------]
Или плохо закопали
[E--------------------------------------------
B--------------------------------------------
G--------------------------------------------
D-----2-------4------------5-------4---------
A-----2-------4------------5-------4---------
E--0--0--0-0--2--2-2-2--3--3--3-3--2--2-2-2--]
Или совесть беспокоит
[E--------------------------------------------
B--------------------------------------------
G--------------------------------------------
D-----2-------4------------5-------7---------
A-----2-------4------------5-------7---------
E--0--0--0-0--2--2-2-2--3--3--3-3--5--5-5-5--]
Иль соседи кровопийцы
[E--------------------------------------------
B--------------------------------------------
G-----2-------4------------5-------4---------
D-----2-------4------------5-------4---------
A--0--0--0-0--2--2-2-2--3--3--3-3--2--2-2-2--
E--------------------------------------------]
Или что-нибудь такое
[E--------------------------------------------
B--------------------------------------------
G-----2-------4------------5-------7---------
D-----2-------4------------5-------7---------
A--0--0--0-0--2--2-2-2--3--3--3-3--5--5-5-5--
E--------------------------------------------]
Что забыли летописцы
!И так далее каждый куплет
Документ
Категория
Ноты, аккорды
Просмотров
8
Размер файла
8 Кб
Теги
черный, цезаря, обелиск
1/--страниц
Пожаловаться на содержимое документа