close

Вход

Забыли?

вход по аккаунту

?

ЧИЖ - Лирическая

код для вставкиСкачать
Эрогенная зона (1996)
Лирическая
!(В. Высоцкий)
> Am Am/G F E
Здесь лапы у елей дрожат на весу,
> Dm/H E7 Am Am/C
Здесь птицы щебечут тревожно.
> Gm6 A7 Dm Dm/C
Живешь в заколдованном диком лесу,
>Dm/H F E7 E7/D
Откуда уйти невозможно.
> Am Am/G H7
Пусть черемухи сохнут бельем на ветру,
> G7 G C A7/C#
Пусть дождем опадают сирени,
> Dm Dm/H Am Am/G
Все равно я отсюда тебя заберу
> F E7 Am
Во дворец, где играют свирели!
Твой мир колдунами на тысячи лет
Укрыт от меня и от света,
И думаешь ты, что прекраснее нет,
Чем лес заколдованный этот.
Пусть на листьях не будет росы поутру,
Пусть луна с небом пасмурным в ссоре,
Все равно я отсюда тебя заберу
В светлый терем с балконом на море!
В какой день недели, в котором часу
Ты выйдешь ко мне осторожно?
Когда я тебя на руках унесу
Туда, где найти невозможно?
Украду, если кража тебе по душе,
Зря ли я столько сил разбазарил?!
Соглашайся хотя бы на рай в шалаше,
Если терем с дворцом кто-то занял...
-
> Dm
[e|------1-------------1------------1------------1-----------------------------
b|--3-----3-------3-----3------3-----3------3-----3---------------------------
g|----2-----2-------2-----2------2-----2------2-----2-------------------------
D|-0------------0------------0------------0-----------------------------------
A|----------------------------------------------------------------------------
E|----------------------------------------------------------------------------]
Здесь
> Dm Dm/C H7 A7(?) G(m(?)) A7
[e|-------1------------1--------------------------------------0----------------
b|---3-----3------3-----3----------3------------2----------3---3---------2----
g|-----2-----2------2-----2------1---1--------0---0------3-------3-----0---0--
D|-0---------------------------3-------3----2-------2----------------2-------2
A|--------------3------------1------------0------------------------0----------
E|-----------------------------------------------------3----------------------]
лапы у елей дрожжат на весу. Здесь птицы щебечут
> Dm Dm/F Hm D Gm Gm7
[e|-------1-------------1-----------3------------2-------------3---------------
b|-----3---3---------3---3-----------4--------3---3---------3---3----------3--
g|---2-------2-----2-------2-----5-----5----2-------2-----3-------3-------3--3
D|-0-----------sl3-------------5----------0-----------sl5---------------3-----
A|---------------------------3----------------------------------------5-------
E|------------------------------------------------------------------3---------]
трево- -жно. Живешь в заколдо- диком лесу,
ванном,
> Dm E7 A-4 A7 Dm Dm/F
[e|-------1-----------0-------------0----------0------------1------------1-----
b|-----3---3-------3---3---------3---3--2-------2------3-----3------3-----3---
g|---------------1-------1-----2----------0-------0------2-----2------2-----2-
D|-3-3-------3---------------2--------------2--------0------------------------
A|-------------------------0------------0-------------------------3-----------
E|-------------0--------------------------------------------------------------]
откуда уйти невозможно. Пусть черемухи сохнут
> E7/H E7 C C F
[e|--------0------------0-------------0----------0-------------1---------------
b|------3---3--------3---3---------1---1----------1---------1---1-------------
g|----1-------1----1-------1-----0------------0------0----2-------2-----------
D|-----------------------------2------------2-----------3---------------------
A|-2-------------------------3------------3-----------------------------------
E|---------------0------------------------------------------------------------]
бельем на ветру, пусть дождем опадают сирени
> Cm D Gm Gm7 Dm Dm
[e|-3------2-------------3--------------3------------1-----------1-------------
b|---4------3---------3---3----------3---3--------3---3-------3---3-----------
g|-----5------2-----3-------3------3-------3----2-------2---2-------2---------
D|--------0-----sl5---------------------------0-----------0-------------------
A|>---------------------------------------------------------------------------
E|?3?----------------------------3--------------------------------------------]
Все равно я от сюда тебя заберу во
> H7 A7 Dm
[e|----------1------------0----------1-----------------------------------------
b|--------3---3--------2---2----3-----3---------------------------------------
g|------1------------0------------2-----2-------------------------------------
D|----3------------2----------0-----------------------------------------------
A|--1------------0------------------------------------------------------------
E|----------------------------------------------------------------------------]
дворец где играют свирели...........
[e|---------1------------0----------1------------1-------------3---------------
b|-------3---3--------2---2----3-----3------3-----3---------3---3-------------
g|-----1------------0------------2-----2------2-----2-----3-------3-----------
D|---3------------2----------0------------0-----------sl5---------------------
A|-1------------0-------------------------------------------------------------
E|----------------------------------------------------------------------------]
терем, с дворцом кто-то занял соглашайся
[e|-------3------------1-----------1---------------1------------0--------------
b|-----3---3--------3---3-------3---3-----------3---3--------2---2------------
g|---3-------3----2-------2---2-------2-------1------------0------------------
D|--------------0-----------0---------------3------------2--------------------
A|----------------------------------------1------------0----------------------
E|-3--------------------------------------------------------------------------]
хотя бы на рай в шалаше, если терем с дворцом кто-то
и дальше произвольно типа: {замедляя}.
[e|-------1--------0--------1--------------------------------------------------
b|-------3--------2------3----------------------------------------------------
g|-----1--------0------2------------------------------------------------------
D|---3--------2------0--------------------------------------------------------
A|-1--------0-----------------------------------------------------------------
E|----------------------------------------------------------------------------]
занял
Здесь лапы у елей дрожат на весу,
Здесь птицы щебечут тревожно.
Живешь в заколдованном диком лесу,
Откуда уйти невозможно.
Пусть черемухи сохнут бельем на ветру,
Пусть дождем опадают сирени,
Все равно я отсюда тебя заберу
Во дворец, где играют свирели.
Твой мир колдунами на тысячи лет
Укрыт от меня и от света.
И думешь ты, что прекраснее нет,
Чем лес заколдованный этот.
Пусть на листьях не будет росы поутру,
Пусть луна с небом пасмурным в ссоре,
Все равно я отсюда тебя заберу
В светлый терем с балконом на море.
В какой день недели, в котором часу
Ты выйдешь ко мне осторожно?
Когда я тебя на руках унесу
Туда, где найти невозможно?
Украду, если кража тебе по душе,
Эря ли я столько сил разбазарил.
Соглашайся хотя бы на рай в шалаше, / 2 раза
Если терем с дворцом кто-то занял. /
-
> Dm Dm7 B7 A7
Здесь лапы у елей дрожат на весу,
> Gm6 A7 Dm
Здесь птицы щебечут тревожно -
> Am-5 D7 Gm Gm7
Живешь в заколдованном диком лесу,
> B7 E7 A7+3 A7
Откуда уйти невозможно.
> Dm Dm7 E7
Пусть черемухи сохнут бельем на ветру,
> C7 F Am-5 D7
Пусть дождем опадают сирени, -
> Gm Dm
Все равно я отсюда тебя заберу
> B7 А7 Dm
Во дворец, где играют свирели!
Твой мир колдунами на тысячи лет
Укрыт от меня и от света, -
И думаешь, ты, что прекраснее нет,
Чем лес заколдованный этот.
Пусть на листьях не будет росы поутру,
Пусть луна с небом пасмурным в ссоре, -
Все равно я отсюда тебя заберу
В светлый терем с балконом на море!
! <Em> (далее в тональности <E>)
В какой день недели, в котором часу
Ты выйдешь ко мне осторожно,
Когда я тебя на руках унесу
Туда, где найти невозможно?
Украду, если кража тебе по душе, -
Зря ли я столько сил разбазарил?!
Соглашайся хотя бы на рай в шалаше,
Если терем с дворцом кто-то занял!
Документ
Категория
Ноты, аккорды
Просмотров
7
Размер файла
9 Кб
Теги
чиж, лирическая
1/--страниц
Пожаловаться на содержимое документа