close

Вход

Забыли?

вход по аккаунту

?

Шуберт Франц - Форель - квинтет в А, Ор. 114 - 4-ая часть

код для вставкиСкачать
Форель - квинтет в А, Ор. 114 - 4-ая часть
!Размер: 2/4
!allegretto
[E------------------|----------0---0---|------------------|
B------------------|--1-----1---------|--1---------------|
G--------------0---|--------0-----0---|----------0---0---|
D------------------|--------2-----2---|------2-----------|
A------------------|--3-------3-------|--3---------------|
E------------------|------------------|------------------|
E------------------|------------------|----------0---0---|
B----------3-1-----|------------------|--1-----1---------|
G--0-----0-----0---|--0-----------0---|--------0-----0---|
D------0---------2-|------0---3-------|--------2-----2---|
A------------------|------------------|--3-------3-------|
E--3---------------|--3---------------|------------------|
E------------------|------------------|------------------|
B--1-----------1---|--0-----0-1-------|------------------|
G----------0-------|------2-----------|--0-----------0---|
D------2-----------|--0-----------4---|------0-----------|
A--3---------------|------------------|------------------|
E------------------|------------------|----------3-------|
E------------------|------------------|------------1-----|
B--0-----0-1-0---0-|--1-----------1---|--------------3---|
G--------------2---|----------0-------|--0-----0-0-----0-|
D--------0-3-------|------2-----------|----------0-------|
A------------------|--3---------------|------------------|
E--3---------------|------------------|--3---------------|
E------------------|------------------|------------------|
B--1-----------1---|--------------1---|--1---------------|
G------0-----------|--2-----2-2-------|----------0---0---|
D------2-----------|------------------|------2-----------|
A--3-------3-------|------------------|--3---------------|
E------------------|--1---------------|------------------|
E------------------|------------------|------------------|
B----------3---0---|--1-----------1---|--0---------1-0-3-|
G--0-----0---------|----------0-------|------2-2-2-------|
D------0-----------|------2-----------|------------------|
A------------------|--3---------------|------------------|
E--3---------------|------------------|--1---------------|
E------------------|------------------|------------------|
B--1---------------|----------3---0---|--1---------------|
G----------0---0---|--0-----0---------|------0-----------|
D------2-----------|------0-----------|------2-----------|
A--3---------------|------------------|----------3-------|
E------------------|--3---------------|------------------|]
Документ
Категория
Ноты, аккорды
Просмотров
17
Размер файла
3 Кб
Теги
франц, 114, квинтет, часть, шуберт, форель
1/--страниц
Пожаловаться на содержимое документа