close

Вход

Забыли?

вход по аккаунту

?

Шуфутинский Михаил - Свечи

код для вставкиСкачать
!Свечи
!(музыка: А. Лобановский слова: А. Лобановский)
!Вступление (Бетховен - Лунная соната, 1st movement in G minor)
[E||-----3--6-----3--6--|-----3--6-----3--6--|
H||--3--------3--------|--3--------3--------|
G||--------------------|--------------------|
D||--------------------|--------------------|
A||--------------------|--------------------|
E||--3-----------------|--------------------|
-----3--6-----3--6--|-----3--6-----3--6--|-----3--6-----3--6--|
--3--------3--------|--3--------3--------|--4--------4--------|
--------------------|--------------------|--------------------|
--3-----------------|--------------------|--------------------|
--------------------|--------------------|--------------------|
--------------------|--------------------|--------------------|
-----4--8-----4--8--|-----5--8-----3--6--|-----3--5--------5--|
--4--------4--------|--3--------3--------|--3-----------7-----|
--------------------|--------------------|-----------5--------|
--------------------|--------------------|--------------------|
--------------------|--------------------|--------------------|
--------------------|--------------------|--------------------|
--------3-----3--6--|-----3--6--10--3--6-10-|--10------8-----5--8--|
-----3-----3--------|--3--------3-----------|--3---10-----3--------|
--3-----------------|-----------------------|----------------------|
--------------------|-----------------------|----------------------|
--------------------|-----------------------|----------------------|
--------------------|-----------------------|----------------------|
-----5--8--10------8-10-|--10--3--6-----3--6--|--11--3--6-----3--6--|
--3--------3---10-------|--3---------3--------|------------4--------|
------------------------|---------------------|---------------------|
---------------------12-|---------------------|--13-----------------|
------------------------|---------------------|---------------------|
------------------------|---------------------|---------------------|
--10-----6--------6--|--8-----5--------5--|--10-----6--------6--|
--3---6-----3--6-----|-----6--------6-----|------6--------6-----|
---------------------|--5--------5--------|--7---------7--------|
---------------------|--------------------|---------------------|
---------------------|--------------------|---------------------|
---------------------|--------------------|---------------------|
--------6--------6--|--------5--------5--|--------5--------5--|
-----6--------6-----|-----7--------7-----|-----7--------7-----|
--7--------7--------|--7--------7--------|--7--------7--------|
--------------------|--------------------|--------------------|
--------------------|--------------------|--------------------|
--------------------|--------------------|--------------------|]
>Gm
Осенней ночью, за окном,
>Eb
Туман поссорился с дождем.
>Cm F
И беспробудный вечер,
>B
И беспробудный вечер.
> Eb F
О чем-то дальнем, неземном, \
> B Eb \
О чем-то близком и родном, \
>Cm Cm/A } 2 раза
Сгорая плачут свечи, /
>D Gm /
Сгорая плачут свечи. /
!Проигрыш (2 раза):
> Gm Gm
[------------------|--3-------------|
----------3-----3-|--------3-------|
--------3-----3---|-----3----3---3-|
------5-----5-----|------------5---|
----5-------------|----------------|
--3---------------|----------------|]
Казалось, плакать им о чем?
Мы, вообщем, праведно живем.
Но иногда, под вечер,
Но иногда, под вечер,
Мы вдруг садимся за рояль, \
Снимаем с клавишей вуаль, \ 2 раза
И зажигаем свечи, /
И зажигаем свечи! /
!Проигрыш = Вступление
А свечи плачут за людей;
То тише плачут, то сильней.
И позабыть волшебных дней
Они не могут, свечи...
И очень важно для меня, \
Что не боится воск огня, \ 2 раза
И за тебя, и за меня, /
Сгорая плачут свечи. /
!Сгорая плачут свечи. } 2 раза
!Проигрыш (со снижением громкости)
!Комментарий автора подбора к песне:
!Тональность песни <Gm>. Поэтому всупление
!и аккорды будет проще играть с каподастром
!на третьем ладу.
!Тогда вместо <Gm> играть <Em>; <Eb> -&gt; <C>; <Cm> -&gt; <Am>;
!<F> -&gt; <D>; <B> -&gt; <G>; <Cm>/<A> -&gt; <Am>/<F#>; <D> -&gt; <H>.
Документ
Категория
Ноты, аккорды
Просмотров
52
Размер файла
4 Кб
Теги
шуфутинский, михаил, свеча
1/--страниц
Пожаловаться на содержимое документа