close

Вход

Забыли?

вход по аккаунту

?

Элизиум - Куда теряется мечта

код для вставкиСкачать
Куда теряется мечта?
Вступление:[E-----------|
H-----------|
G-----------|} x2
D|---7--8--7--5--7------|
A|--5-5-5-5-5-5-5-------|
E-----------|]
!ВСТУПЛЕНИЕ ТРУБЫ:
> d5 A#5 F5 C5 d5 A#5 F5 C5
[E----------------------------------|
H----------------------------------|
G---------5------------------------|
D|-7-0-7-8-0-8-7--7-7---8-7-5-|-7-0-7-8-0-8-7--7-7-5-8-7-5-|
A----------------------------------|
E----------------------------------|]
>d5(m) A#5 F5
(1)В который раз мне снова не понять,
> C5 D5
Куда теряется мечта,
>D5 A#5 F5
куда уходит молодость и страсть,
> C5 D5
Где любовь и красота,
>D5 A#5 F5
Куда уходит ночь,
> C5 D5
Куда уходит день,
> A#5 F5
где лезвие ножа,
> C5
где свет, где тень.
>D5 A#5 F5 C5
Припев:Солнце окрасит весок багряной краской,
>D5 A#5 F5 C5
Мир содрогнется, и быть больно перестанет,
>D5 A#5 F5 C5
я очарован 100 лет той прекрасной СКАзкой
>D5 A#5 F5 C5
Что словной зыбкий мираж в пустыне тает
(2)В который раз мечта,
и в сотый раз идет ко дну,
В который раз забрезжит свет любви,
и тут же ???ет в темноту
Как лето в Январе,
Как в решете вода,
Сжигает в топке дней свои года.
>D5 A#5 F5 C5
Припев:Солнце окрасит весок багряной краской,
>D5 A#5 F5 C5
Мир содрогнется, и быть больно перестанет,
>D5 A#5 F5 C5
я очарован 100 лет той прекрасной СКАзкой
>D5 A#5 F5 C5
Что словной зыбкий мираж в пустыне тает
>D5 A#5 F5 C5
АААААААААААААААААА
-
Вступление:<Dm B F C>
[e|-----------------------------|-----------------------------|
h|-----------------------------|-----------------------------|
g|---------------------5-------|-----------------------------| } X 2
d|-7---7-8---8-7---7-7---8-7-5-|-7---7-8---8-7---7-7-5-8-7-5-|
a|---5-----8-------------------|---5-----8-------------------|
E|-----------------------------|-----------------------------|]
>Dm B F
В который раз мне снова не понять,
>C Dm
Куда теряется мечта,
куда уходит молодость и страсть,
Где любовь и красота,
Куда уходит ночь,
Куда уходит день,
где лезвие ножа,
где свет, где тень.
>Dm B F C
Солнце окрасит весок багряной краской,
Мир содрогнётся, и быть больно перестанет,
я очарован сто лет той прекрасной сказкой
Что словной зыбкий мираж в пустыне тает
В который раз сбывается мечта,
и в сотый раз идёт ко дну,
В который раз забрезжит свет любви,
и тут же канет в темноту
Как лето в Январе,
Как в решете вода,
Сжигает в топке дней свои года.
Солнце окрасит весок багряной краской,
Мир содрогнётся, и быть больно перестанет,
я очарован сто лет той прекрасной СКАзкой
Что словной зыбкий мираж в пустыне тает
Документ
Категория
Ноты, аккорды
Просмотров
4
Размер файла
3 Кб
Теги
куда, теряется, мечты, элизиум
1/--страниц
Пожаловаться на содержимое документа