close

Вход

Забыли?

вход по аккаунту

?

Элизиум - Словно Будда

код для вставкиСкачать
Словно Будда
!Вступление:
> C5 A5 F5 G5
[E|-------|---------|---|---------|
H|-------|---------|---|---------|
G|-------|---------|---|---------|x2
D|-------|---------|---|---------|---5-------|
A|-2-3-5-|-7-8-7-5-|-7-|-0-5-7-8-|-8---8-7-5-|
E|-------|---------|---|---------|]
!БАС для пРИПЕВА(ПО АРПЕДЖИО):
> c Am F G Em D
[G|---------| |---------| |---------| |---------| |---------| |-----2---|
D|---2-5-2-|x2|-----2---|x2|---------|x2|---------|x2|---------|x2|---3---3-|x2
A|-3-------| |-0-3---3-| |---0-3-0-| |---2-5-2-| |-----2---| |-5-------|
E|---------| |---------| |-1-------| |-3-------| |-0-3---3-| |---------|]
>c
(1)Я не забуду никогда
>Am
эти горы и леса,
>D G
эти реки и озера,
>Em
Но все же я уйду туда,
>Am
где отсутствуют года,
>F G
где нет ??? беда и горе.
Я так устал от городов,
от машин и поездов,
от промышленных ???,
от человеческих страстей,
негативных новостей,
и отсутствия таланта.
>С5 A5
Припев:Я ухожу от Вас туда,
> F5 G5
Где будет праЗНик и Веселье,
>C5 A5
Где не найдет меня беда,
> F5 G5
И стороной пройдет похмелье!
>Am G F G
Словно Будда, я ухожу отсюда,
>Am G F G
Золотое облако нирваны и блаженства,
>A5 G5 F5 G5
Я стану выше, умней добрей и чище
>A5 G5 F5 G5
в золотом облаке нирваны и блаженства.
>c
(2)Как уходящая мечта,
>Am
Как любовь и красота,
>D G
Не вернусь сюда я боле,
>Em
Я стану nевом и Землей,
>Am
Стану Солнцем и Луной,
>F G
Стану сахаром и солью
Как одинокая звезда,
буду я светить всегда,
тем, кто ищет просветленья
Я стану сушей и водой,
Стану птицей и змеей,
Стану светом стану тенью.
>С5 A5
Припев:Я ухожу от Вас туда,
> F5 G5
Где будет праЗНик и Веселье,
>C5 A5
Где не найдет меня беда,
> F5 G5
И стороной пройдет похмелье!
>Am G F G
Словно Будда, я ухожу отсюда,
>Am G F G
Золотое облако нирваны и блаженства,
>A5 G5 F5 G5
Я стану выше, умней добрей и чище
>A5 G5 F5 G5
в золотом облаке нирваны и блаженства.
Документ
Категория
Ноты, аккорды
Просмотров
9
Размер файла
3 Кб
Теги
словно, будды, элизиум
1/--страниц
Пожаловаться на содержимое документа