close

Вход

Забыли?

вход по аккаунту

?

Элизиум - Солнце

код для вставкиСкачать
Солнце
Вcтyплeниe:< C E Am>
[e:---------------|---------------|----------------|
B:------5------5-|------9------9-|------5------5--|
G:-----5------5--|-----9------9--|-----5------5---|
D:----5------5---|----9------9---|----7------7----|
A:--3------3-----|--7------7-----|----------------|
E:---------------|---------------|--5------5------|
> F G
e:---------|----------|
B:----1----|----3-----|
G:-----2---|-----4----|
D:------3--|------5---|
A:--3------|--5-------|
E:---------|----------|]
>C E E7
У тeбя oпять ceгoдня oкaзaлcя дeнь нeвaжный:
>Am F G
Твoй вoздyшный зaмoк pyxнyл, yтoнyл кopaбль бyмaжный.
>C E E7
Пo щeкaм cтeкaют cлeзы, твoй пpивычный миp paзpyшeн,
>Am F G
В cepдцe нacтyпaeт oceнь, гopoд cтaл yныл и cкyшeн.
>C E E7
Припев:Coлнцe - шapик пyнцoвый.
>Am F G
Cлёзы, миp бecтoлкoвый!
>C E E7
Звёзды xoдят кpyгaми,
>Am F G
Cлёзы, пыль пoд нoгaми.
Мoжeт быть нe вcё тaк плoxo, мoжeт быть cлyчитcя чyдo?
Мoжeт быть ты пoбывaeшь в гopoдax из изyмpyдa!
И внeзaпнoю вoлнoю c гoлoвoй нaкpoeт лeтo
И зaкpyжит и зaвepтит в pитмe coлнeчнoгo cвeтa!
!Припев } 2 paзa
-
!Introduction: <D F# Hm G A>
!Вступление2:
> D5 F#5 H5 G5 A5
[E------------------------| |-E
H------------------------| |-H
G------------------------| |-G
D-|-0-4-2-4-0-4-2-4-|---4-2-4---4-2-4-|---4-2-4---4-2-4-|-5-4-2----5-4-2-|X2|-D
A-------|-4-------4-------|-2-------2-------|--------0-------| |-A
E------------------------| |-E]
>D
>D5
(1)У тебя опять сегодня
>F#5
Оказался день неважный,
>H5
Твой воздушный замок рухнул,
>G5 A5
Утонул корабль бумажный,
>D5
По щекам стекают слезы,
>F#5
Твой привычный мир разрушен,
>H5
в сердце наступает осень,
>G5 A5
город стал уныл и скушен.
>D5 F#5
Припев:Солнце - шарик пунцовый,
>H5 G5 A5
Слезы, мир бестолковый,
>D5 F#5
Звезды ходят кругами,
>H5 G5 A5
Слезы, мир под ногами.
(2)Может быть не все так плохо,
Может быть случится чудо,
Может быть ты побываешь
В городах из изумруда,
И внезапною волною
С головой накроет ветром
И закружит, и завертит
В ритме солнечного света.
!Припев(в стиле РЕГГИ):
>D F#
Солнце - шарик пунцовый,
>Hm G A
Слезы, мир бестолковый,
>D F#
Звезды ходят кругами,
>Hm G A
Слезы, мир под ногами.
!Бас для припева после 2 куплета:
> D F# Hm G A
[G-|---------|---------|---------|---------|-G
D-|-----7---|---------|-----4---|---------|-D
A-|-5-5---5-|-----4---|-2-2---2-|---5---7-|-A
E-|---------|-2-2---2-|---------|-3---5---|-E]
>D5 F#5
Припев:Солнце - шарик пунцовый,
>H5 G5 A5
Слезы, мир бестолковый,
>D5 F#5
Звезды ходят кругами,
>H5 G5 A5
Слезы, мир под ногами.
-
Вступление:<D F# Hm G A>
> D5 F#5 H5 G5 A5
[E|-----------------|-----------------|-----------------|----------------|
H|-----------------|-----------------|-----------------|----------------|
G|-----------------|-----------------|-----------------|----------------|
D|-0-4-2-4-0-4-2-4-|---4-2-4---4-2-4-|---4-2-4---4-2-4-|-5-4-2----5-4-2-|
A|-----------------|-4-------4-------|-2-------2-------|--------0-------|
E|-----------------|-----------------|-----------------|----------------|]
>D5
У тебя опять сегодня
>F#5
Оказался день неважный,
>H5
Твой воздушный замок рухнул,
>G5 A5
Утонул корабль бумажный,
По щекам стекают слёзы,
Твой привычный мир разрушен,
В сердце наступает осень,
город стал уныл и скушен.
>D5 F#5
Припев:Солнце - шарик пунцовый,
>H5 G5 A5
Слёзы, мир бестолковый,
>D5 F#5
Звёзды ходят кругами,
>H5 G5 A5
Слёзы, мир под ногами.
Может быть не всё так плохо,
Может быть случится чудо,
Может быть ты побываешь
В городах из изумруда,
И внезапною волною
С головой накроет ветром
И закружит, и завертит
В ритме солнечного света.
>D F#
Припев:Солнце - шарик пунцовый,
>Hm G A
Слёзы, мир бестолковый,
>D F#
Звёзды ходят кругами,
>Hm G A
Слёзы, мир под ногами.
!Бас для припева после 2 куплета:
> D F# Hm G A
[G|---------|---------|---------|---------|
D|-----7---|---------|-----4---|---------|
A|-5-5---5-|-----4---|-2-2---2-|---5---7-|
E|---------|-2-2---2-|---------|-3---5---|]
!Припев
Документ
Категория
Ноты, аккорды
Просмотров
8
Размер файла
5 Кб
Теги
солнце, элизиум
1/--страниц
Пожаловаться на содержимое документа