close

Вход

Забыли?

вход по аккаунту

?

Эпидемия - Белый Сокол

код для вставкиСкачать
На краю времени (1999), Жизнь В Сумерках (2005)
Белый Сокол
!(Мелисов)
!Distortion guitar
[E||------------------|------------------|-------------------|
B||------------------|------------------|-------------------|
G||------------------|------------------|--0----------------|
D||------------------|------------------|-------------------|
A||------------------|------------------|--3----------------|
E||------------------|------------------|-------------------|
-------------------|-------------------|--------------------|
--1----------------|-------------------|--------------------|
-------------------|-------------------|--3-----------------|
--3----------------|--3----------------|--1--------0--------|
-------------------|--1----------------|--------------------|
-------------------|-------------------|-----------3--------|
-------------------|-------------------|--------------------|
-------------------|-------------------|--1-----------------|
-------------------|--0----------------|--------------------|
-------------------|-------------------|--3--------0--------|
--6----------------|--3----------------|--------------------|
--4----------------|-------------------|-----------3--------|
----------------------|--3-3----1-1----3-3----1-1----|
----------------------|--4-4-4--3-3-4--4-4-4--3-3-4--|
--0----0--0--0--------|------5------5------5------5--|
----------------------|------------------------------|
--3----3--3--3--------|------------------------------|
----------------------|------------------------------|
--8-8-----6-6-4--8-8-----6-6-4--|--4-4-----------4-4-----------|
--9-9-9---8-8-6--9-9-9---8-8-6--|--6-6-6--8-8-6--6-6-6--8-8-6--|
------10-------------10---------|------7--8-8-7------7--8-8-7--|
--------------------------------|------------------------------|
--------------------------------|------------------------------|
--------------------------------|------------------------------|
--6-6---------------------------|------------------------------|
--8-8-8--9--9--8--6-6-0--4-4-3--|--4-4----3-3-1--4-4----3-3-1--|
------8--10-10-8--7-7-7--5-5-4--|--5-5-5--3-3-1--5-5-5--3-3-1--|
--------------------------------|------6-------------6---------|
--------------------------------|------------------------------|
--------------------------------|------------------------------|
------------------------------|--1-1-----------1-1-----------|
--4-4-1--3-3-1--4-4-1--3-3-1--|--3-3-3--4-4-3--3-3-3--4-4-3--|
--5-5-2--3-3-2--5-5-2--3-3-2--|------3--5-5-3------3--5-5-3--|
------------------------------|------------------------------|
------------------------------|------------------------------|
------------------------------|------------------------------|
--4--3--1-----------------------------|-------------------|-------------------|
-----------4--3--1--0-----------------|--0----------------|-------------------|
-----------------------1--0-----------|--0----------------|--0----------------|
-----------------------------3--1--0--|-------------------|-------------------|
--------------------------------------|-------------------|--3----------------|
--------------------------------------|-------------------|-------------------|
-------------------|-------------------|-------------------|------------------|
-------------------|-------------------|-------------------|------------------|
--3----------------|--0----------------|--3----------------|------------------|
--1----------------|-------------------|--1----------------|------------------|
-------------------|--3----------------|-------------------|------------------|
-------------------|-------------------|-------------------|------------------|
------------------|------------------|------------------|-------------------|
------------------|------------------|------------------|-------------------|
------------------|------------------|------------------|--0----------------|
------------------|------------------|------------------|-------------------|
------------------|------------------|------------------|--3----------------|
------------------|------------------|------------------|-------------------|
-------------------|-------------------|-------------------|
-------------------|-------------------|-------------------|
--3----------------|--0----------------|--3----------------|
--1----------------|-------------------|--1----------------|
-------------------|--3----------------|-------------------|
-------------------|-------------------|-------------------|
------------------------|------------------------|------------------------|
--3----------3----3--4--|----4--------4----4-----|-------------1----1-----|
--0----0--0--0----0--0--|----0--0--0--0----0--5--|----5----------------3--|
------------------------|---------------------3--|----3--3--3--3----3--1--|
------------------------|------------------------|------------------------|
------------------------|------------------------|------------------------|
------------------------|---------------------------|
------------------------|---------------------------|
----3--2--3--2-----3----|--------------0----0--0----|
----1--1--1-----3--3----|---------------------------|
------------------------|--3-3-3-3-3-3-3----3--3----|
------------------------|---------------------------|
---------------------------|---------------------------|
---------------------------|---------------------------|
---------------------------|---------------------------|
--------------3----3--3----|--------------3----3--3----|
--1-1-1-1-1-1-1----1--1----|--0-0-0-0-0-0-0----0--0----|
---------------------------|---------------------------|
--------------------------|---------------------------|
-----------1--------------|---------------------------|
--3--2--3-----3--2--0--2--|--------------0----0--0----|
--1--1--1--3--3--3--1--3--|---------------------------|
--------------------------|--3-3-3-3-3-3-3----3--3----|
--------------------------|---------------------------|
---------------------------|---------------------------|
---------------------------|---------------------------|
---------------------------|---------------------------|
--------------3----3--3----|--------------3----3--3----|
--1-1-1-1-1-1-1----1--1----|--0-0-0-0-0-0-0----0--0----|
---------------------------|---------------------------|
--------------------------|------------------------|------------------------|
-----------1--------------|------------------------|------------------------|
--3--2--3-----3--2--0--2--|------------------------|----------------0-------|
--1--1--1--3--3--3--1--3--|--0---------------------|--3----0--0--0--0--0----|
--------------------------|-------------------1----|--5----------8-----8----|
--------------------------|--3----3--3--1--3-------|------------------------|
------------------------|------------------------|------------------------|
------------------------|-------------4--3--1----|------------------------|
--0----------2--3--2----|------------------------|------------------------|
--1----1--1--1--1--1----|--3---------------------|--1----------1--3--1----|
------------------------|--1----1--1-------------|--3----3--3--3--3--3----|
------------------------|------------------------|------------------------|
------------------------|------------------------|----------------------------|
------------------------|------------------------|--1-------------------------|
------------------------|--0----------2--3--2----|------------3---------2-----|
--0---------------------|--1----1--1--1--1--1----|-----3-3-3-----3-3-3-----3--|
----------------0--1----|------------------------|----------------------------|
--3----3--3--3----------|------------------------|----------------------------|
----------------------------------|----------------------------------|
----------------------------------|----------------------------------|
----------------------------------|--2---------------2---------------|
--0---------------0---------------|--0-0-0-0-0-0-0-0-0-0-0-0-0-0-0-0-|
----------------------------------|----------------------------------|
--3-3-3-3-3-3-3-3-3-3-3-3-3-3-3-3-|----------------------------------|
----------------------------------|----------------------------------|
----------------------------------|----------------------------------|
--3---------------3---------------|----------------------------------|
--1-1-1-1-1-1-1-1-1-1-1-1-1-1-1-1-|--3---------------3---------------|
----------------------------------|--1-1-1-1-1-1-1-1-1-1-1-1-1-1-1-1-|
----------------------------------|----------------------------------|
----------------------------------|----------------------------------|
----------------------------------|----------------------------------|
--0---------------0---------------|----------------------------------|
----------------------------------|--0---------------0---------------|
--3-3-3-3-3-3-3-3-3-3-3-3-3-3-3-3-|----------------------------------|
----------------------------------|--3-3-3-3-3-3-3-3-3-3-3-3-3-3-3-3-|
----------------------------------|----------------------------|
----------------------------------|--1-------------------------|
--3---------------3---------------|------------3---------2-----|
--1-1-1-1-1-1-1-1-1-1-1-1-1-1-1-1-|-----3-3-3-----3-3-3-----3--|
----------------------------------|----------------------------|
----------------------------------|----------------------------|
--3-3----1-1----3-3----1-1----|--8-8-----6-6-4--8-8-----6-6-4--|
--4-4-4--3-3-4--4-4-4--3-3-4--|--9-9-9---8-8-6--9-9-9---8-8-6--|
------5------5------5------5--|------10-------------10---------|
------------------------------|--------------------------------|
------------------------------|--------------------------------|
------------------------------|--------------------------------|
--4-4-----------4-4-----------|--6-6---------------------------|
--6-6-6--8-8-6--6-6-6--8-8-6--|--8-8-8--9--9--8--6-6-0--4-4-3--|
------7--8-8-7------7--8-8-7--|------8--10-10-8--7-7-7--5-5-4--|
------------------------------|--------------------------------|
------------------------------|--------------------------------|
------------------------------|--------------------------------|
------------------------------|------------------------------|
--4-4----3-3-1--4-4----3-3-1--|--4-4-1--3-3-1--4-4-1--3-3-1--|
--5-5-5--3-3-1--5-5-5--3-3-1--|--5-5-2--3-3-2--5-5-2--3-3-2--|
------6-------------6---------|------------------------------|
------------------------------|------------------------------|
------------------------------|------------------------------|
--1-1-----------1-1-----------|--4--3--1-----------------------------|
--3-3-3--4-4-3--3-3-3--4-4-3--|-----------4--3--1--0-----------------|
------3--5-5-3------3--5-5-3--|-----------------------1--0-----------|
------------------------------|-----------------------------3--1--0--|
------------------------------|--------------------------------------|
------------------------------|--------------------------------------|
-------------------|-------------------|-------------------|-------------------|
--0----------------|-------------------|-------------------|-------------------|
--0----------------|--0----------------|--3----------------|--0----------------|
-------------------|-------------------|--1----------------|-------------------|
-------------------|--3----------------|-------------------|--3----------------|
-------------------|-------------------|-------------------|-------------------|
-------------------|------------------------|------------------------|
-------------------|--3----------3----3--4--|----4--------4----4-----|
--3----------------|--0----0--0--0----0--0--|----0--0--0--0----0--5--|
--1----------------|------------------------|---------------------3--|
-------------------|------------------------|------------------------|
-------------------|------------------------|------------------------|
------------------------|------------------------|-------------------|
-------------1----1-----|------------------------|-------------------|
----5----------------3--|----3--2--3--2-----3----|--0----------------|
----3--3--3--3----3--1--|----1--1--1-----3--3----|-------------------|
------------------------|------------------------|--3----------------|
------------------------|------------------------|-------------------|
-------------------|-------------------|-------------------|
-------------------|-------------------|-------------------|
--3----------------|--0----------------|--3----------------|
--1----------------|-------------------|--1----------------|
-------------------|--3----------------|-------------------|
-------------------|-------------------|-------------------|
------------------------|------------------------|------------------------|
--3----------3----3--4--|----4--------4----4-----|-------------1----1-----|
--0----0--0--0----0--0--|----0--0--0--0----0--5--|----5----------------3--|
------------------------|---------------------3--|----3--3--3--3----3--1--|
------------------------|------------------------|------------------------|
------------------------|------------------------|------------------------|
------------------------|---------------------------|
------------------------|---------------------------|
----3--2--3--2-----3----|--------------0----0--0----|
----1--1--1-----3--3----|---------------------------|
------------------------|--3-3-3-3-3-3-3----3--3----|
------------------------|---------------------------|
---------------------------|---------------------------|
---------------------------|---------------------------|
---------------------------|---------------------------|
--------------3----3--3----|--------------3----3--3----|
--1-1-1-1-1-1-1----1--1----|--0-0-0-0-0-0-0----0--0----|
---------------------------|---------------------------|
--------------------------|---------------------------|
-----------1--------------|---------------------------|
--3--2--3-----3--2--0--2--|--------------0----0--0----|
--1--1--1--3--3--3--1--3--|---------------------------|
--------------------------|--3-3-3-3-3-3-3----3--3----|
--------------------------|---------------------------|
---------------------------|---------------------------|
---------------------------|---------------------------|
---------------------------|---------------------------|
--------------3----3--3----|--------------3----3--3----|
--1-1-1-1-1-1-1----1--1----|--0-0-0-0-0-0-0----0--0----|
---------------------------|---------------------------|
--------------------------|------------------------|------------------------|
-----------1--------------|------------------------|------------------------|
--3--2--3-----3--2--0--2--|------------------------|----------------0-------|
--1--1--1--3--3--3--1--3--|--0---------------------|--3----0--0--0--0--0----|
--------------------------|-------------------1----|--5----------8-----8----|
--------------------------|--3----3--3--1--3-------|------------------------|
------------------------|------------------------|------------------------|
------------------------|-------------4--3--1----|------------------------|
--0----------2--3--2----|------------------------|------------------------|
--1----1--1--1--1--1----|--3---------------------|--1----------1--3--1----|
------------------------|--1----1--1-------------|--3----3--3--3--3--3----|
------------------------|------------------------|------------------------|
------------------------|------------------------|----------------------------|
------------------------|------------------------|--1-------------------------|
------------------------|--0----------2--3--2----|------------3---------2-----|
--0---------------------|--1----1--1--1--1--1----|-----3-3-3-----3-3-3-----3--|
----------------0--1----|------------------------|----------------------------|
--3----3--3--3----------|------------------------|----------------------------|
----------------------------------|----------------------------------|
----------------------------------|----------------------------------|
----------------------------------|--2---------------2---------------|
--0---------------0---------------|--0-0-0-0-0-0-0-0-0-0-0-0-0-0-0-0-|
----------------------------------|----------------------------------|
--3-3-3-3-3-3-3-3-3-3-3-3-3-3-3-3-|----------------------------------|
----------------------------------|----------------------------------|
----------------------------------|----------------------------------|
--3---------------3---------------|----------------------------------|
--1-1-1-1-1-1-1-1-1-1-1-1-1-1-1-1-|--3---------------3---------------|
----------------------------------|--1-1-1-1-1-1-1-1-1-1-1-1-1-1-1-1-|
----------------------------------|----------------------------------|
----------------------------------|----------------------------------|
----------------------------------|----------------------------------|
--0---------------0---------------|----------------------------------|
----------------------------------|--0---------------0---------------|
--3-3-3-3-3-3-3-3-3-3-3-3-3-3-3-3-|----------------------------------|
----------------------------------|--3-3-3-3-3-3-3-3-3-3-3-3-3-3-3-3-|
----------------------------------|----------------------------|
----------------------------------|--1-------------------------|
--3---------------3---------------|------------3---------2-----|
--1-1-1-1-1-1-1-1-1-1-1-1-1-1-1-1-|-----3-3-3-----3-3-3-----3--|
----------------------------------|----------------------------|
----------------------------------|----------------------------|
----------------------------|-------------------|----------------------------|
----------------------------|-------------------|----------------------------|
--3--0-0-0--0--0-0-0--3--0--|-------------------|--0---------0---------0-----|
--5---------8---------------|--3----------------|--1--1-1-1--1--1-1-1-----1--|
----------------------------|--5----------------|----------------------------|
----------------------------|-------------------|----------------------------|
-------------------|----------------------------|----------------------------|
-------------------|----------------------------|----------------------------|
-------------------|----------------------------|----------------------------|
--0----------------|--1---------1---------1-----|----------------------------|
--1----------------|--3--3-3-3--3--3-3-3-----3--|--1---------1---------1-----|
-------------------|----------------------------|--3--3-3-3--3--3-3-3-----3--|
--------------------------|--------------------------|
--------------1-----------|--------1-----------------|
--2-----2--3-----3--2-----|--2--3-----3--2--0--------|
-----3-----------------3--|--------------------3--1--|
--3-----------------------|--------------------------|
--1-----------------------|--------------------------|
----------------------------|-------------------|----------------------------|
----------------------------|-------------------|----------------------------|
--3--0-0-0--0--0-0-0--3--0--|-------------------|--0---------0---------0-----|
--5---------8---------------|--3----------------|--1--1-1-1--1--1-1-1-----1--|
----------------------------|--5----------------|----------------------------|
----------------------------|-------------------|----------------------------|
-------------------|----------------------------|----------------------------|
-------------------|----------------------------|----------------------------|
-------------------|----------------------------|----------------------------|
--0----------------|--1---------1---------1-----|--0---------0---------0-----|
--1----------------|--3--3-3-3--3--3-3-3-----3--|--1--1-1-1--1--1-1-1-----1--|
-------------------|----------------------------|----------------------------|
--------------------------|-------------------|-------------------|
--------------------------|-------------------|-------------------|
--------------------------|-------------------|-------------------|
--------------------------|--4----------------|--0----------------|
--------------------------|--5----------------|-------------------|
--1--1--1--1--1--1--1--1--|-------------------|--3----------------|
-------------------|-------------------|-------------------|-------------------|
-------------------|-------------------|--1----------------|-------------------|
--3----------------|--0----------------|-------------------|-------------------|
--1----------------|-------------------|--3----------------|--0----------------|
-------------------|--3----------------|-------------------|-------------------|
-------------------|-------------------|-------------------|--3----------------|
-------------------|-------------------|-------------------|-------------------|
-------------------|-------------------|--1----------------|-------------------|
--3----------------|--0----------------|-------------------|-------------------|
--1----------------|-------------------|--3----------------|--0----------------|
-------------------|--3----------------|-------------------|-------------------|
-------------------|-------------------|-------------------|--3----------------|
-------------------|-------------------|-------------------|-------------------|
-------------------|-------------------|--1----------------|-------------------|
--3----------------|--0----------------|-------------------|-------------------|
--1----------------|-------------------|--3----------------|--0----------------|
-------------------|--3----------------|-------------------|-------------------|
-------------------|-------------------|-------------------|--3----------------|
-------------------|-------------------|-------------------|-------------------|
-------------------|-------------------|--1----------------|-------------------|
--3----------------|--0----------------|-------------------|--3----------------|
--1----------------|-------------------|--3----------------|--1----------------|
-------------------|--3----------------|-------------------|-------------------|
-------------------|-------------------|-------------------|-------------------|
-------------------|-------------------|-------------------|-------------------|
--1----------------|-------------------|--1----------------|-------------------|
-------------------|-------------------|-------------------|--3----------------|
--3----------------|--0----------------|--3----------------|--1----------------|
-------------------|-------------------|-------------------|-------------------|
-------------------|--3----------------|-------------------|-------------------|
-------------------|-------------------|------------------|--------------------|
--1----------------|-------------------|------------------|-----------1--------|
-------------------|-------------------|------------------|--3-----------------|
--3----------------|--0----------------|------------------|--1--------3--------|
-------------------|-------------------|------------------|--------------------|
-------------------|--3----------------|------------------|--------------------|
-------------------|-------------------|-------------------|-------------------|
-------------------|-------------------|-------------------|-------------------|
-------------------|--2----------------|--3----------------|-------------------|
--0----------------|--0----------------|--1----------------|--3----------------|
-------------------|-------------------|-------------------|--1----------------|
--3----------------|-------------------|-------------------|-------------------|
-------------------|-------------------|-------------------|-------------------|
-------------------|-------------------|-------------------|--1----------------|
--0----------------|-------------------|--3----------------|-------------------|
-------------------|--0----------------|--1----------------|--3----------------|
--3----------------|-------------------|-------------------|-------------------|
-------------------|--3----------------|-------------------|-------------------|
-------------------|-------------------|-------------------|-------------------|
-------------------|-------------------|-------------------|-------------------|
-------------------|--2----------------|--3----------------|-------------------|
--0----------------|--0----------------|--1----------------|--3----------------|
-------------------|-------------------|-------------------|--1----------------|
--3----------------|-------------------|-------------------|-------------------|
-------------------|-------------------|-------------------|-------------------|
-------------------|-------------------|-------------------|--1----------------|
--0----------------|-------------------|--3----------------|-------------------|
-------------------|--0----------------|--1----------------|--3----------------|
--3----------------|-------------------|-------------------|-------------------|
-------------------|--3----------------|-------------------|-------------------|
-------------------|-------------------|-------------------|-------------------|
-------------------|--1----------------|-------------------|--1----------------|
--3----------------|-------------------|-------------------|-------------------|
--1----------------|--3----------------|--0----------------|--3----------------|
-------------------|-------------------|-------------------|-------------------|
-------------------|-------------------|--3----------------|-------------------|
-------------------|-------------------|-------------------|------------------|
-------------------|--1----------------|-------------------|------------------|
--3----------------|-------------------|-------------------|------------------|
--1----------------|--3----------------|--0----------------|------------------|
-------------------|-------------------|-------------------|------------------|
-------------------|-------------------|--3----------------|------------------|
--------------------|------------------------|------------------------|
-----------1--------|--3----------3----3--4--|----4--------4----4-----|
--3-----------------|--0----0--0--0----0--0--|----0--0--0--0----0--5--|
--1--------3--------|------------------------|---------------------3--|
--------------------|------------------------|------------------------|
--------------------|------------------------|------------------------|
------------------------|------------------------|------------------------|
-------------1----1-----|------------------------|--3----------3----3--4--|
----5----------------3--|----3--2--3--2-----3----|--0----0--0--0----0--0--|
----3--3--3--3----3--1--|----1--1--1-----3--3----|------------------------|
------------------------|------------------------|------------------------|
------------------------|------------------------|------------------------|
------------------------|------------------------|------------------------|
----4--------4----4-----|-------------1----1-----|------------------------|
----0--0--0--0----0--5--|----5----------------3--|----3--2--3--2-----3----|
---------------------3--|----3--3--3--3----3--1--|----1--1--1-----3--3----|
------------------------|------------------------|------------------------|
------------------------|------------------------|------------------------|
------------------------|------------------------|------------------------|
--3----------3----3--4--|----4--------4----4-----|-------------1----1-----|
--0----0--0--0----0--0--|----0--0--0--0----0--5--|----5----------------3--|
------------------------|---------------------3--|----3--3--3--3----3--1--|
------------------------|------------------------|------------------------|
------------------------|------------------------|------------------------|
------------------------|------------------------|------------------------|
------------------------|--3----------3----3--4--|----4--------4----4-----|
----3--2--3--2-----3----|--0----0--0--0----0--0--|----0--0--0--0----0--5--|
----1--1--1-----3--3----|------------------------|---------------------3--|
------------------------|------------------------|------------------------|
------------------------|------------------------|------------------------|
------------------------|------------------------|---------------------------|
-------------1----1-----|------------------------|---------------------------|
----5----------------3--|----3--2--3--2-----3----|--------------0----0--0----|
----3--3--3--3----3--1--|----1--1--1-----3--3----|---------------------------|
------------------------|------------------------|--3-3-3-3-3-3-3----3--3----|
------------------------|------------------------|---------------------------|
---------------------------|---------------------------|
---------------------------|---------------------------|
---------------------------|---------------------------|
--------------3----3--3----|--------------3----3--3----|
--1-1-1-1-1-1-1----1--1----|--0-0-0-0-0-0-0----0--0----|
---------------------------|---------------------------|
--------------------------|---------------------------|
-----------1--------------|---------------------------|
--3--2--3-----3--2--0--2--|--------------0----0--0----|
--1--1--1--3--3--3--1--3--|---------------------------|
--------------------------|--3-3-3-3-3-3-3----3--3----|
--------------------------|---------------------------|
---------------------------|---------------------------|
---------------------------|---------------------------|
---------------------------|---------------------------|
--------------3----3--3----|--------------3----3--3----|
--1-1-1-1-1-1-1----1--1----|--0-0-0-0-0-0-0----0--0----|
---------------------------|---------------------------|
--------------------------|------------------------|------------------------|
-----------1--------------|------------------------|------------------------|
--3--2--3-----3--2--0--2--|------------------------|----------------0-------|
--1--1--1--3--3--3--1--3--|--0---------------------|--3----0--0--0--0--0----|
--------------------------|-------------------1----|--5----------8-----8----|
--------------------------|--3----3--3--1--3-------|------------------------|
------------------------|------------------------|------------------------|
------------------------|-------------4--3--1----|------------------------|
--0----------2--3--2----|------------------------|------------------------|
--1----1--1--1--1--1----|--3---------------------|--1----------1--3--1----|
------------------------|--1----1--1-------------|--3----3--3--3--3--3----|
------------------------|------------------------|------------------------|
------------------------|------------------------|----------------------------|
------------------------|------------------------|--1-------------------------|
------------------------|--0----------2--3--2----|------------3---------2-----|
--0---------------------|--1----1--1--1--1--1----|-----3-3-3-----3-3-3-----3--|
----------------0--1----|------------------------|----------------------------|
--3----3--3--3----------|------------------------|----------------------------|
----------------------------------|----------------------------------|
----------------------------------|----------------------------------|
----------------------------------|--2---------------2---------------|
--0---------------0---------------|--0-0-0-0-0-0-0-0-0-0-0-0-0-0-0-0-|
----------------------------------|----------------------------------|
--3-3-3-3-3-3-3-3-3-3-3-3-3-3-3-3-|----------------------------------|
----------------------------------|----------------------------------|
----------------------------------|----------------------------------|
--3---------------3---------------|----------------------------------|
--1-1-1-1-1-1-1-1-1-1-1-1-1-1-1-1-|--3---------------3---------------|
----------------------------------|--1-1-1-1-1-1-1-1-1-1-1-1-1-1-1-1-|
----------------------------------|----------------------------------|
----------------------------------|----------------------------------|
----------------------------------|----------------------------------|
--0---------------0---------------|----------------------------------|
----------------------------------|--0---------------0---------------|
--3-3-3-3-3-3-3-3-3-3-3-3-3-3-3-3-|----------------------------------|
----------------------------------|--3-3-3-3-3-3-3-3-3-3-3-3-3-3-3-3-|
----------------------------------|----------------------------|
----------------------------------|--1-------------------------|
--3---------------3---------------|------------3---------2-----|
--1-1-1-1-1-1-1-1-1-1-1-1-1-1-1-1-|-----3-3-3-----3-3-3-----3--|
----------------------------------|----------------------------|
----------------------------------|----------------------------|
----------------------------------|----------------------------------|
----------------------------------|--0---------------0---------------|
----------------------------------|----------------------------------|
--2---------------2---------------|--2-2-2-2-2-2-2-2-2-2-2-2-2-2-2-2-|
--0-0-0-0-0-0-0-0-0-0-0-0-0-0-0-0-|----------------------------------|
----------------------------------|----------------------------------|
----------------------------------|----------------------------------|
--1---------------1---------------|----------------------------------|
----------------------------------|--0---------------0---------------|
--3-3-3-3-3-3-3-3-3-3-3-3-3-3-3-3-|----------------------------------|
----------------------------------|--3-3-3-3-3-3-3-3-3-3-3-3-3-3-3-3-|
----------------------------------|----------------------------------|
----------------------------------|----------------------------------|
----------------------------------|----------------------------------|
--2---------------2---------------|----------------------------------|
--0-0-0-0-0-0-0-0-0-0-0-0-0-0-0-0-|--2---------------2---------------|
----------------------------------|--0-0-0-0-0-0-0-0-0-0-0-0-0-0-0-0-|
----------------------------------|----------------------------------|
----------------------------------|----------------------------|
--1---------------1---------------|--3---------1---------0-----|
----------------------------------|-----0-0-0-----0-0-0-----0--|
--3-3-3-3-3-3-3-3-3-3-3-3-3-3-3-3-|----------------------------|
----------------------------------|----------------------------|
----------------------------------|----------------------------|
-------------------------|------------------------|-------------------||
-------------------------|------------------------|-------------------||
-------------------------|------------------------|-------------------||
--2-------------------0--|-------------------0----|--2----------------||
--0----0--0--0--0--0-----|------------------------|--0----------------||
----------------------3--|----3--3--3--3--3--3----|-------------------||]
-
Текст:Чёрный маг, безумный гений
Смерти эликсир решил создать.
В мрачном замке привидений
Кто ему сумеет помешать?
Ночь царит над землёй,
Где найдётся герой?
Чёрные руки жестом умелым
Ловко сплетают смерти мотив,
Но Белый Сокол молнией белой
Тучи разгонит, жизнь возвратив!
Воин Света, сын вселенной,
призван Равновесие хранить,
Чтобы нити поколений
Зло вновь не пыталось разрубить.
Мрак завис над землёй.
Где найдётся Герой?
Чёрные руки жестом умелым...
Тот, кто воскрес,
Смотрит с небес,
Взгляд полон вселенской тоски.
Реки текут, эльфы поют,
Только они далеки!
!соло Juron
Ночь царит над землёй…
Чёрные руки жестом умелым...
Документ
Категория
Ноты, аккорды
Просмотров
16
Размер файла
36 Кб
Теги
белый, эпидемия, сокол
1/--страниц
Пожаловаться на содержимое документа