close

Вход

Забыли?

вход по аккаунту

?

Эпидемия - В Неведомой Стране

код для вставкиСкачать
*На краю времени* (1999)
В Неведомой Стране
!(Захаров)
!Вступление (2 разa):
>Dm Am Dm } 2 разa
>F Am Dm } 2 разa
> Dm Am Dm
В неведомой стране,
> Dm C Dm
Где свет не сдался тьме,
> Gm C F B
Где Солнца лик не стал Луной,
> B C Dm
А день - порой ночной.
Проигрыш:<Gm C F B B A Dm>
В подгорных рубежах
И в золотых лесах
Героев помнят тех времён
И злато их имён.
Проигрыш:<Gm C F B B A Dm>
> Dm C
Но силы тьмы копят зло -
> F C
Их время ещё не пришло.
>Gm C
И колыхнётся весь мир,
>B A
Кровавым получится пир.
>Dm C
Чёрная сила колец
>F C
Владеет одним из сердец,
> Gm C F C
Тьма ему воздвигла трон,
>B C Dm
И незыблем он.
Проигрыш:<Gm C F B B C Dm>
!(аккорды, как в начале):
И будет страшный бой
С мятежною душой,
Ведь слово ќМордор› на устах
В сердца вселяет страх.
Никто и никогда
Путей не знал туда -
Там среди призрачных вершин
Горит Ородруин.
> Dm C Dm
Его недра дышат огнём,
> C
Словно пасти драконов,
> F C
Сжигая безмолвную высь.
>Dm C Dm
И не подняться по склонам
> C
Назло всем законам,
> F C
Лишь только за воздух держись.
> Gm C
Может, тебе этот путь предстоит,
> A Dm
Кто-то из нас выбран судьбой.
> Gm C
Чаши весов колыхнутся.
> F A
Мы знаем.
соло Juron:<B C A Dm B C A> } 2 разa
>B C Dm
>B C
>Dm B C
!пошёл мужской хор: <Dm C B A>
!затем женский: <Dm C B A>
>B C A } 2 разa
>Dm C B A } 2 разa
!Стучат какие-то кастаньеты: <Gm F A>
!аккорды, как в начале:
Возьми меня с собой -
Я верным был слугой
В душе я чувствую беду,
И я с тобой пойду.
Пусть мне неведом путь-
Об этом позабудь.
Я слышу - ветер нам поёт
И за собой зовёт.
Окончание:<Gm C F B B A Dm> } 2 разa
-
Вступление:[E||-----------------------------|---------------------------|
B||-----3---1-3--1------------|----------------3---1-3--|
G||--2---------------2---------|-------------2------------|
D||---------------------3--2---|---3-2--0----------------|
A||-----------------------------|---------------------------|
E||-----------------------------|---------------------------|
-----------------------------|------------------------------|
--1--------------------------|------------------------------|
-----2-----------------------|------------------------------|
--------3--2---3-2--0--0--|--2--3---5-3--2--0---------|
-----------------------------|------------------------3--5--|
-----------------------------|-------------------------------|
-----------------------------|-------------------------|-----------------------------|
-----------------------------|-------------------------|-----3---1-3--1-----------|
-------------------2---3-2--|------------------------|--2----------------2--------|
-----3--0--3--5------------|--5--3--2--0----------|----------------------3--2--|
--5--------------------------|------------------------|-----------------------------|
------------------------------|------------------------|-----------------------------|
---0h3h0--------------------|---------------0h3h0---------|
------------3-------3---1-3--|--1--------------------3------|
------------------2-----------|-----2-------------------------|
-------------------------------|--------3--2---------------0--|
-------------------------------|--------------------------------|
-------------------------------|--------------------------------|
------------------------------|-----------------------------|-------------------------||
------------------------------|-----------------------------|-------------------------||
------------------------------|------------------2---3-2--|-------------------------||
--2--3---5-3--2--0--------|-----3--0--3--5-----------|---5--3--2--0----------||
-----------------------3--5--|--5------------------------|--------------------------||
------------------------------|----------------------------|--------------------------||]
-
Текст:В неведомой стране,
Где свет не сдался тьме,
Где Солнца лик не стал Луной,
А день - порой ночной.
В подгорных рубежах
И в золотых лесах
Героев помнят тех времён
И злато их имён.
Но силы тьмы копят зло -
Их время ещё не пришло.
И колыхнётся весь мир,
Кровавым получится пир.
Чёрная сила колец
Владеет одним из сердец,
Тьма ему воздвигла трон,
И незыблем он.
И будет страшный бой
С мятежною душой,
Ведь слово «Мордор» на устах
В сердца вселяет страх.
Никто и никогда
Путей не знал туда -
Там среди призрачных вершин
Горит Ородруин.
Его недра дышат огнём,
Словно пасти драконов,
Сжигая безмолвную высь.
И не подняться по склонам
Назло всем законам,
Лишь только за воздух держись.
Может, тебе этот путь предстоит,
Кто-то из нас выбран судьбой.
Чаши весов колыхнутся.
Мы знаем.
!соло Juron
Возьми меня с собой -
Я верным был слугой
В душе я чувствую беду,
И я с тобой пойду.
Пусть мне неведом путь-
Об этом позабудь.
Я слышу - ветер нам поёт
И за собой зовёт.
Документ
Категория
Ноты, аккорды
Просмотров
9
Размер файла
5 Кб
Теги
неведомой, стран, эпидемия
1/--страниц
Пожаловаться на содержимое документа