close

Вход

Забыли?

вход по аккаунту

?

Эпидемия - Всадник из льда

код для вставкиСкачать
Эльфийская рукопись
Всадник из льда
!(музыка и слова Юрий Мелисов)
> Em C Am D
[E-|-----0--------0----------0-------2----------
B-|-------0--------1------1-----------3---------
G-|---0--------0--------2---------2-------------- } 4 раза
D-|--------------------------------------------
A-|----------3--------0------------------------
E-|-0------------------------------------------]
!Далее играется перебором: бас[-3-2-3-1-3-2-3]
>Em C Am D
(1)Застыв на ветру у синего льда,
>Em C Am G D
Я скоро умру - уйду навсегда.
> C D
Я верю тебе, а сейчас
> Em
Я верю судьбе-
> C Am D
Свет погас, ведь солнце зашло для меня
<Em>|<C>|<Am>|<D>
Припев:Навсегда.
Навсегда..
(2)Я сам погубил, Уже не вернуть,
Тебя не хранил и проклят мой путь.
Я сердце как лед холодил,
Мой прерван полет, позади
Все то чем я жил и кого
Припев:Я любил.
Я любил..
>Em C Am
Переход:Кто любовь потерял-
> G D
Превращается в лед.
>Em C Am
Кто ее отыскал-
> G D
Никогда не умрет.
> Em D
Ведь все что любил, но не ценил
>E Am
Потерял я в миг
>F C D
И навсегда всадник из льда
>Em
Позабыл твой лик.
(3)Чтоб горе забыть и сгладить вину
Скачу во всю прыть в Забвенья страну.
Окончен мой путь, я устал -
Пора отдохнуть среди скал,
Покрытые льдом, словно
Припев:сердце мое.
как сердце мое.
(4)Мне край этот мил, нет боли и слез.
Все чувства убил волшебный мороз.
Я всадник из льда, надо мной
Мерцает звезда, но весной
Лед тает всегда, только я
Припев:Никогда.
Никогда..
(5)Я всадник из льда, надо мной
Мерцает звезда, но весной
Лед тает всегда, только я
Никогда!
-
>Em c Am D
[E-|-----0--------0----------0-------2----------
B-|-------0--------1------1-----------3---------
G-|---0--------0--------2---------2-------------- (4 раза)
D-|--------------------------------------------
A-|----------3--------0------------------------
E-|-0------------------------------------------]
!Далее играется перебором: бас[-3-2-3-1-3-2-3]
>Em C Am D
Застыв на ветру у синего льда,
>Em C Am G D
Я скоро умру - уйду навсегда.
!Только теперь транспонируй все это в соль минор.
>Gm D# Cm B
!В таком духе вся песня.
-
!Настройка в <Eb> (записывал в Powertab'е)
Intro: Gtr I
3x
||-------------------------------------||
||o-----8-------6---------------------o||
||----7---7---5---5-7---7-8-(8)---8----|| ноты в скобках означают, что они ещё длятся.
||--5-------3---------7---------8---8--||
||o-----------------5-----6-(6)-------o||
||-------------------------------------||
|
| Gtr II
| 3x
||-------------------------------------||
||o-----------------------------------o||
||------3-------2----------------------||
||----5---5---3---3-3---3-5-(5)---5----||
||o-------------------5---------6---6-o||
||--3-------1-------5-----6-(6)--------||
|-------------------------------------|
|-------------------------------------|
|-------12---------10----7---7-8-(8)--|
|----12----12---10----10---7---8-(8)--|
|-10----------8----------5-----6-(6)--|
|-------------------------------------|
|
|-------------------------------------|
|-------------------------------------|
|--------3----------2-----------------|
|-----5-----5----3-----3-3---3-5-(5)--|
|--------------------------5---6-(6)--|
|--3----------1----------5-----6-(6)--|
Verse: Gtrs I, V
|---------3---------------3-------|---------3---------------6--------|
|-----3-----3---3-----4-----4-----|-3h4-------4---------6-----6------|
|---3---3-----3-----3---3---------|-----5-------5-----7---7----------|
|---------------------------------|-------5-------5------------------|
|-----------------6-----------6-5-|-3--------------------------------|
|-3-------------------------------|-----------------6-----------6-5--|
|---------3---------------3-------|---------3---------------6--------|
|-----3-----3---3-----4-----4-----|-3h4-------4---------6-----6---6--|
|---3---3-----3-----3---3---------|-----5-------5-----7---7-----7----|
|---------------------------------|-------5-------5------------------|
|-----------------6-----------6-5-|-3--------------------------------|
|-3-------------------------------|-----------------6----------------|
|--------------5-----------------3-------|---------5---------------6--------|
|------6----------6----6-----4-----4---4-|-----6-------6-------8-------8----|
|---5------5---------5-----3---3-----3---|---5---5---5---5---7---7---7---7--|
|----------------------------------------|-----------------5----------------|
|-8----------------------6---------------|-8--------------------------------|
|----------------------------------------|----------------------------------|
|
|----------------------------------------|----------------------------------|
|----------------------------------------|----------------------------------|
|----------------------------------------|----------------------------------|
|---7-10-(10)--8h10p=8S7-8---------------|----------------------------------|
|---8-12-(12)-10h12p10S8-6---------------|----------------------------------|
|----------------------------------------|----------------------------------|
2/4
|---------3---------------3--|------|
|-----4-------4---------4----|------|
|---3---3---3---3-----5------|------|
|-------------------5--------|------|
|-6---------------3----------|------|
|----------------------------|------|
|
| Gtr III
|----------------------------|------|
|----------------------------|------|
|----------------------------|------|
|----------------------------|-3----|
|----------------------------|-3----|
|----------------------------|-1----|
Chorus: <GmIII>(type<Eb>) <Cm Bb FI>
4/4
Gtrs I, V
|-3-3-3-3-3-3-3-3-3-3---|-3-3-3-3-3-1-x-x-1-x-x-----|
|-3-3-3-3-3-4-4-4-4-4---|-4-4-4-4-4-3-x-x-1-x-x-----|
|-3-3-3-3-3-3-3-3-3-3---|-5-5-5-5-5-3-x-x-2-x-x-----|
|-5-5-5-5-5-5-5-5-5-5---|-5-5-5-5-5-3-x-x-3-x-x-----|
|-5-5-5-5-5-6-6-6-6-6---|-3-3-3-3-3-1-x-x-3-x-x-----|
|-3-3-3-3-3-3-3-3-3-3---|-----------------1-x-x-----|
|
| Gtr III
| PM------------|
|-----------------------|---------------------------|
|-----------------------|---------------------------|
|-----------------------|---------------3-------3-2-|
|-5---------5-----------|-5-----------3---3---3-----|
|-5---------6-----------|-3---------1-------0-------|
|-3---------6-----------|---------------------------|
<GmIII>(type<Eb>) <Cm Bb FI>
|-3-3-3-3-3-3-3-3-3-3----|-3-3-3-3-3-1---x-x-1---x-x-|
|-3-3-3-3-3-4-4-4-4-4----|-4-4-4-4-4-3---x-x-1---x-x-|
|-3-3-3-3-3-3-3-3-3-3----|-5-5-5-5-5-3---x-x-2---x-x-|
|-5-5-5-5-5-5-5-5-5-5----|-5-5-5-5-5-3---x-x-3---x-x-|
|-5-5-5-5-5-6-6-6-6-6----|-3-3-3-3-3-1---x-x-3---x-x-|
|-3-3-3-3-3-3-3-3-3-3----|-------------------1---x-x-|
|
| PM------------|
|------------------------|---------------------------|
|------------------------|---------------------------|
|------------------------|---------------3-------3-2-|
|-5---------5------------|-5-----------3---3---3-----|
|-5---------6------------|-3---------1-------0-------|
|-3---------6------------|---------------------------|
Verse 2: Gtrs I, V
|---------3---------------3-------|---------3---------------6--------|
|-----3-------3-------4-----------|-3h4-------4---------6-----6------|
|---3---3---3---3---3---3---3-----|-----5-------5-----7---7----------|
|---------------------------------|-------5-------5------------------|
|-----------------6-----------6-5-|-3--------------------------------|
|-3-------------------------------|-----------------6-----------6-5--|
|---------3---------------3-------|---------3---------------6--------|
|-----3-------3-------4-----------|-3h4-------4---------6-------6----|
|---3---3---3---3---3---3---3-----|-----5-------5-----7---7---7---7--|
|---------------------------------|-------5-------5------------------|
|-----------------6-----------6-5-|-3--------------------------------|
|-3-------------------------------|-----------------6----------------|
|----------5-------------------------3-------|
|-----6---------------6----------4-------4---|
|---5---5------5-----------5---3---3---3---3-|
|--------------------------------------------|
|-8--------------------------6---------------|
|--------------------------------------------|
|
| Gtr II
|--------------------------------------------|
|--------------------------------------------|
|--------------------------------------------|
|-------7-10-(10)--8h10p=8S7-8---------------|
|-------8-12-(12)-10h12p10S8-6---------------|
|--------------------------------------------|
|---------5---------------6--------|
|-----6-------6-------8-------8----|
|---5---5---5---5---7---7---7---7--|
|-----------------5----------------|
|-8--------------------------------|
|----------------------------------|
|
|----------------------------------|
|----------------------------------|
|----------------------------------|
|----------------------------------|
|----------------------------------|
|----------------------------------|
2/4
|---------3---------------3--|------|
|-----4-------4---------4----|------|
|---3---3---3---3-----5------|------|
|-------------------5--------|------|
|-6---------------3----------|------|
|----------------------------|------|
|
| Gtr III
|----------------------------|------|
|----------------------------|------|
|----------------------------|------|
|----------------------------|-3----|
|----------------------------|-3----|
|----------------------------|-1----|
!Соло потом допишу
-
!Играется с зажимом на 2-м ладу.
Вступление:Первая гитара
>F#m E C#m D
|--------------------------------|
|--------------------------------|
|----2---------------------------|
|--4---4-----6---2---2-4-----4---|
|4---------7---7-4-4---5---5---5-|
|--------7-------4-----5---------|
!Вторая гитара
>F#m E C#m D
|----2---------------------------|
|--2---2-----5-------------------|
|----------4---4-6---6-7-----7---|
|4-------2-------6-6---7---7---7-|
|----------------4-----5---------|
|--------------------------------|
КУплет:<F#m D>
|--------2---------------2-------|
|----2-----2---2-----3-----3-----|
|--2---2-----2-----2---2---------|
|--------------------------------|
|----------------5-----------5-4-|
|2-------------------------------|
>Hm A
|--------2---------------5-------|
|2h3-------3---3-----5-----5-----|
|4---4-------4-----2---2---------|
|------4-------------------------|
|2-------------------------------|
|----------------5-----------5-4-|
Примечание:h = hammer
>F#m D
Застыв на ветру
>Hm A
У синего льда,
>F#m D
Я скоро умру –
>Hm A
Уйду навсегда.
>E D
Я верил тебе,
> E F#m
А сейчас я верю судьбе.
> D Hm
Свет погас, ведь солнце зашло
> E F#m D Hm A
Для меня навсегда.
> E F#m D Hm A E
Навсегда...
Я сам погубил –
Уже не вернуть.
Тебя не хранил,
И проклят мой путь.
А сердце, как лёд –
Холодит, мой прерван полёт,
Позади всё то, чем я жил
И кого я любил.
Я любил...
>F#m D
Кто любовь потерял -
>Hm D E
Превращается в лёд.
>F#m D
Кто её отыскал –
>Hm A E
Никогда не умрёт.
> F#m E
Всё, что любил, но не ценил,
> C#m D
Потерял я вмиг,
>Hm F#m D
И навсегда Всадник Из Льда
>E F#m
Позабыл твой лик.
!(cоло Juron)
Чтоб горе забыть
И сгладить вину,
Скачу от судьбы
В забвения страну.
Окончен мой путь –
Я устал, пора отдохнуть
Среди скал, покрытые льдом,
Словно сердце моё.
Как сердце моё...
Мне край этот мил -
Нет боли и слёз.
Все чувства убил
Волшебный мороз.
Я Всадник Из Льда,
Надо мной мерцает звезда,
Но весной лёд тает всегда,
Только я - никогда.
Только я - никогда...
-
!Основная идея:
!Тональность <F#>
>Em D H C
[Е-|----------------------------------------
B-|----------------------------------------
G-|-----9--------7----------4------5-------
D-|---9---9----7---7----4------5---5-----
A-|-7--------5--------2------3-------------
E-|----------------------------------------]
Застыв на ветру у синего льда,
>Em C Am G
[Е-|----------0-------------0---------------0---------------3----------
B-|------0----0--0----1----1-----0h1--1--1---1----3-----3---------
G-|----0--0----0----0--0--------------2------2----0---0------------
D-|--------------------------------------------------------------------
A-|-----------------3----------3-2-0---------------------------------
E-|--0-------------------------------------------3---------------3-2---]
Я скоро умру - уйду навсегда. Я верил
>Em C Am G D
[Е-|--------0----------------0---------------0--------------3---------------2--------
B-|----0----0---0------1----1-----0h1--1-1--1-----3-----3---3------3---3---3--
G-|--0--0----0-------0--0--------------2----2-----0---0-----0------2-------2----
D-|-------------------------------------------------------------------0--------------
A-|-------------------3---------3-2-0-----------------------------------------------
E-|-0-----------------------------------------------3---------------------------------]
Я верил тебе, а сейчас я верю судьбе свет погас
>C D Em C
[Е-|----------0------------------2----------------0-------------------0-------
B-|------1-----1---0------3-----3---3------0-----0---0------1-----1---0-
G-|----0---0-----0------2---2-----2------0---0-----0------0---0-----0---
D-|-------------------0-------------------------------------------------------
A-|--3-------------------------------------------------------3---------------
E-|------------------------------------0--------------------------------------]
Ведь солнце зашло для меня
>Am D
[Е-|-----------0------------------2--------
B-|------1------1---0------3-----3---3--
G-|----2---2-----0------2----2-----2----
D-|---------------------0------------------
A-|--0------------------------------------
E-|-----------------------------------------]
Навсегда!!!
>Em C Am D
[Е-|--------------------------------------
B-|--------------------------------------
G-|------5----2------------------------
D-|--2--5----2--------5---------5----
A-|--2--3----0---5-7---7---5-7---7-
E-|--0------------P.M.-----------------]
Кто любовь потерял- превращается в лед.
>Em C Am G D
[Е-|--------------------------------------------------------------------
B-|--------------------------------------------------------------------
G-|---------------9-R-5--5-4--2------------------------------------
D-|--2-----------9-E-5--5-4--2---5----------------4-5-7-5-4----
A-|--2-----------7-S-3--3-2--0---5------------5-7-----------5---
E-|--0--------------T---------------3------------P.M............------]
Кто ее отыскал- Никогда не умрет
>Em C Am G D
[Е-|--------------------------------------------
B-|--------------------------------------------
G-|---------------9-R-5--5-4--2---------7--
D-|--2-----------9-E-5--5-4--2-----5---7--
A-|--2-----------7-S-3--3-2--0-----5---5--
E-|--0-------------T------------------3------]
любил.. ценил.. потерял... миг.. и навсегда всадник из льда
>Em D Hm C Am C D
[Е-|---------------------------------------------------------------------------------
B-|---------------------------------------------------------------------P.M....--R-
G-|----R-------7-------4----------5----2----------P. M......----5---------5---E-
D-|--2-E-2----7-------4----------5----2----------0---2---3--5----5-7---5-S-
A-|--2-S-2----5-------2----------3----0-----------------------3--------------T-
E-|--0-T-0-------------------------------------------------------------------------]
Позабыл твой лик.
>Em D H C
[Е-|--------------------------------------------
B-|--------------------------------------------
G-|-----9--------7--------4----------5-------
D-|---9---9----7---7----4--------5---5-----
A-|-7--------5--------2------3---------------
E-|--------------------------------------------]
!Cоло к сожалению пока нет да и точно его не подберешь-на записи плохо слышно
Документ
Категория
Ноты, аккорды
Просмотров
12
Размер файла
17 Кб
Теги
всадник, льда, эпидемия
1/--страниц
Пожаловаться на содержимое документа