close

Вход

Забыли?

вход по аккаунту

?

Эпидемия - Золотые драконы

код для вставкиСкачать
«олотые драконы
!Acoustic guitar (nylon)
[E||------------------|------------------|------------------------|
B||------------------|------------------|--------0---------------|
G||------------------|------------------|------------------------|
D||------------------|------------------|------6-----------------|
A||------------------|------------------|----6-------------------|
E||------------------|------------------|--4---------------------|
--------0---------------|--------3---------------|--------4---------------|
------2-----------------|------2-----------------|------4-----------------|
----1-------------------|----3-------------------|----4-------------------|
------------------------|------------------------|------------------------|
------------------------|------------------------|------------------------|
--4---------------------|--4---------------------|--4---------------------|
------------------------|--------0---------------|--------3---------------|
--------0---------------|------2-----------------|------2-----------------|
------1-----------------|----1-------------------|----3-------------------|
----1-------------------|------------------------|------------------------|
------------------------|------------------------|------------------------|
--4---------------------|--4---------------------|--4---------------------|
--------4---------------|--------0-------0-----------|
------4-----------------|------0------------0-----0--|
----4-------------------|----1-----------------1-----|
------------------------|----------------------------|
------------------------|----------------------------|
--4---------------------|--4-------------------------|
----------------------------|----------------------------|
--------4-------4-----------|--------4-------4-----------|
----0-3------------3--0--3--|------3------------3------3-|
----------------------------|----4-----------------4-----|
----------------------------|----------------------------|
--4-------------------------|--4-------------------------|
----------------------------|----------------------------|
--------2-------2-----------|--------2-------2-----------|
------1------------1----1---|------1------------1-----1--|
----3-----------------3-----|----2-----------------2-----|
----------------------------|----------------------------|
--4-------------------------|--4-------------------------|
----------------------------|----------------------------|
--------0-------------0--4--|--------3-------3-----------|
------1------------1--------|------1------------1------1-|
----1-----------1-----------|----3-----------------3-----|
----------------------------|----------------------------|
--4-------------------------|--4-------------------------|
------------------------|-------------------------|----2--2--2--2--2--2--2--|
--------4---------------|----0--0--0--0--0--0--0--|----2--2--2--2--2--2--2--|
----0-3-----------------|----1--1--1--1--1--1--1--|-------------------------|
----1-------------------|----1--1--1--1--1--1--1--|----4--4--4--4--4--4--4--|
--1---------------------|-------------------------|-------------------------|
------------------------|-------------------------|-------------------------|
----3--3--3--3--3--3--3--|----4--4--4--4--4--4--4--|-----0-----0-----0-----0--|
----2--2--2--2--2--2--2--|----4--4--4--4--4--4--4--|--------2-----4-----2-----|
----3--3--3--3--3--3--3--|----4--4--4--4--4--4--4--|--------------------------|
-------------------------|-------------------------|--------------------------|
-------------------------|-------------------------|--4-----------------------|
-------------------------|-------------------------|--------------------------|
-----2-----2-----2-----2--|--------1-----4--1-----1--|-------------3-----------|
--------4-----4-----4-----|-----3-----3--------3-----|----2--4--2-----4--2--4--|
--------------3-----------|--------------------------|-------------------------|
--------------------------|--------------------------|-------------------------|
--------------------------|--1-----------------------|-------------------------|
--4-----------------------|--------------------------|-------------------------|
------------------|--------------------------|--------------------------|
------------------|---------0----------------|---------2-----------1----|
------------------|---------------------3----|-------1-------------1----|
------------------|-------6----------0--6----|-----3------------1-------|
------------------|-----6------2--1----------|---------------3----------|
------------------|--4-----------------------|--4---------4-------------|
----------------------------|--------------------------|
----------------------------|---------------------1----|
----------------------------|---------------------1----|
-----0-4-0----------4-------|-------4----------1-------|
--2---------2--1--4---4--1--|--0--4---4--0-------------|
----------------------------|---------------4----------|
--------------------------|--------------------------|
---------0----------------|---------2-----------1----|
-------1-------------3----|-------1-------------1----|
-----1------------0--6----|-----3------------1-------|
------------2--1----------|---------------3----------|
--4-----------------------|--4---------4-------------|
----------------------------|--------------------------|
----------------------------|---------------------1----|
----------------------------|---------------------1----|
-----0-4-0----------4-------|-------4----------1-------|
--2---------2--1--4---4--1--|--0--4---4--0-------------|
----------------------------|---------------4----------|
-------0------------------|-------2-------------1----|
-----0---0-----------4----|-----2---2-----------2----|
--1---------1--------4----|--3---------3-----1-------|
---------------1--4-------|---------------3----------|
--------------------------|--------------------------|
--------------------------|--------------------------|
----------------------------|--------------------------|-------------------|
----------------------------|---------------------0----|--2----------------|
----------------------------|---------------------1----|-------------------|
-----0-4-0----------4-------|-------4----------1-------|--4----------------|
--2---------2--1--4---4--1--|--0--4---4--0-------------|--1----------------|
----------------------------|---------------4----------|-------------------|
---------0----------2---|---------2--------------|---------0----------2---|
-------0---0------0---0-|-------2---2------0-4-0-|-------0---0------0---0-|
-----1------------------|----------------1-------|-----1------------------|
--2----------1--4-------|-----4------------------|--2----------1--4-------|
------------------------|--1---------------------|------------------------|
------------------------|-------------4----------|------------------------|
---------2----------2---|---------0----------2---|---------2--------------|
-------2---2------2---2-|-------0---0------0---0-|-------2---2------0-4-0-|
------------------------|-----1------------------|----------------1-------|
-----4----------4-------|--2----------1--4-------|-----4------------------|
--1----------1----------|------------------------|--1---------------------|
------------------------|------------------------|-------------4----------|
---------0----------2---|---------2----------2---|---------0----------2---|
-------0---0------0---0-|-------2---2------2---2-|-------0---0------0---0-|
-----1------------------|------------------------|-----1------------------|
--2----------1--4-------|-----4----------4-------|--2----------1--4-------|
------------------------|--1----------1----------|------------------------|
------------------------|------------------------|------------------------|
---------2--------------|---------0----------2---|---------2----------2---|
-------2---2------0-4-0-|-------0---0------0---0-|-------2---2------2---2-|
----------------1-------|-----1------------------|------------------------|
-----4------------------|--2----------1--4-------|-----4----------4-------|
--1---------------------|------------------------|--1----------1----------|
-------------4----------|------------------------|------------------------|
---------0----------2---|--------------------0---|----------------|
-------0---0------2---2-|-------0-4-0------0---0-|----------------|
-----1------------------|-----1----------1-------|----------1--3--|
--2-------------4-------|-------------2----------|----------------|
-------------1----------|------------------------|----------------|
------------------------|--4---------------------|----------------|
--------------------|---------------||
--0--------------0--|---------------||
------3-1-----------|--6------------||
-----------4--1-----|--4------------||
-----------2--------|---------------||
--0-----------------|--6------------||]
Документ
Категория
Ноты, аккорды
Просмотров
12
Размер файла
9 Кб
Теги
золотые, эпидемия, дракон
1/--страниц
Пожаловаться на содержимое документа