close

Вход

Забыли?

вход по аккаунту

?

Эпидемия - Кровь Эльфов

код для вставкиСкачать
Кровь Эльфов
!(музыка Юрий Мелисов/Илья Князев, слова Юрий Мелисов)
!Настраиваем гитару на полтона ниже (<ЕЬ>, как уже говорилось)
!и погнали (кстати, советую всем настраивать гитары в этой
!тональности, потому что сейчас многие группы играют именно так)
Вступление:Гтр.1
pm... .....
1|----------------------|----------------------|
2|------3--2h3p2p0-|------3-3-3-2-0-2--|
3|----------------------|----------------------| } 2 раза
4|-0-0-----------------|----------------------|
5|----------------------|-1-1-----------------|
6|----------------------|----------------------|
!затем вступает 2-ая гитара, 1-ая продолжает играть то же самое
гтр.2
1|----------------------|----------------------|
2|----------------------|----------------------|
3|--5-------------------|---------------------|
4|--5-------------------|-8-------7----------| } 4 раза
5|--3-------------------|-8-------7----------|
6|----------------------|-6-------5-----------|
!затем гтр1 продолжает играть, а 2-ая играет
pm.................. ......... .........
1|----------------------|-----------------------|
2|----------------------|-----------------------|
3|----------------------|-----------------------| } 4 раза
4|-5-------------------|-----------------------|
5|-3-3-3-3-3-3-3-3-|-8---------7----------|
6|----------------------|-6-6-6-6-5-5-5-5--|
!дальше пишу 2 гитары вместе
гтр1
4|-7-------------------|-9---------------------|
5|-5-------------------|-7---------------------|
гтр2
4|-4~~---------------|-5~~~---------------|
гтр1
pm.................. ..................
1|----------------3-2-|----------------------|
2|---------------------|----------------------|
3|---------------------|----------------------|
4|---------------------|----------------0-2--|
5|---------------------|----------------------|
6|-0-0--0-0--0------|-0-0--0-0--0-------| } 2 раза
гтр2
1|---------------------|----------------------|
2|---------------------|----------------------|
3|---------------------|----------------------|
4|----------------2-2-|----------------------|
5|---------------------|-----------------2-3-|
6|-0-0--0-0--0------|-0-0--0-0--0-------|
гтр1
pm................. ...................
1|-------------------------3-2-|------------------------------|
2|------------------------------|------------------------------|
3|------------------------------|----------------0h2p0------|
4|----------------0h2p0------|-------------------------0-2-|
5|------------------------------|------------------------------|
6|-0-0--0-0--0---------------|-0-0--0-0--0---------------| } 4 раза
гтр2
pm................. ...................
1|------------------------------|------------------------------|
2|------------------------------|------------------------------|
3|------------------------------|----------------0h2p0------|
4|----------------0h2p0-2-2-|------------------------------|
5|------------------------------|-------------------------2-3-|
6|-0-0--0-0--0---------------|-0-0--0-0--0---------------|
куплет:3|-----------------------5----------------------------------|
4|-2--------------------5-------2------7-----2----5---4-|
5|-2--------------------3-------2------7-----2----5---4-| } 2 раза
6|-0-----------------------------0------5-----0----3---2-|
мой мир погрузился......
pm..... ......... .......... ........... ......... .......... .......... ..........
3|---------------------5-------------------------------------------------------------|
4|-2---------2--------5---------2---------7---------2---------5--------4---------|
5|-2---------2--------3-3-3-3-2---------7---------2---------5--------4---------|
6|-0-0-0-0-0-0-0-0-----------0-0-0-0-5-5-5-5-0-0-0-0-3-3-3-3-2-2-2-2-|
4|------------------------------------0--------------2--|
5|---2---------------3----------------------------------| } 7 раз(наверно)
6|-0----0-0-0-0-0-----0-0-0-0-0---0-0-0-0-0-----|
мир меняется........
5|-2222222222222222-----&gt;
!дальше идет припев, который я еще не подобрал.
!Сомнений тут у меня дофига, если кто что увидет корректируйте.
!Тут правда pm... съезжает влево,но я думаю вы поймете когда струны приглушать надо.
-
!Текст:
Deimos:Мой мир погузился во мрак –
Мёртвый ландшафт и холодная мгла.
И я поневоле твой враг
И эта роль мне, поверь, не мила!
Прими предложение моё
Страсть к тебе громко во мне говорит.
Меня твой ответ не убьет,
А тебя к смерти приговорит!
Dragon:Мир меняется,
Жизнь кончается
Ты обречена
И твоя страна!
Вариантов нет
Сфера Эль-Гилэт
В мир, где тьма и лёд
Приоткроет вход!
Dezmond:Кровь Эльфов на талисман
В Ночь Совмещения Деймос прольёт.
Зло, зависть, страх и обман
Он за собой в этот мир принесёт.
Deimos:Ваш мир – он мой
Ключ от него у меня под рукой!
Я обеспечу вам вечный покой!
Deimos:На что уповает твой дух?
Дезмонд тебя не успеет спасти.
Там, где мой дом – свет потух
Ваш тёплый край мой народ приютит.
Тебе я открою секрет:
В ночь Совмещеня эльфийская кровь
Должна обагрить амулет
И распахнутся двери миров.
Dragon:Мир меняется,
Жизнь кончается
Ты обречена
И твоя страна!
Вариантов нет
Сфера Эль-Гилэт
В мир, где тьма и лёд
Приоткроет вход!
Dezmond:Кровь Эльфов на талисман
В Ночь Совмещения Деймос прольёт.
Зло, зависть, страх и обман
Он за собой в этот мир принесёт.
Deimos:Ваш мир – он мой
Ключ от него у меня под рукой!
Я обеспечу вам вечный покой!
Alatiel:Ты безумен и жесток,
Но кончается твой срок,
Ты не будешь править миром
Будь ты проклят, Тьмы пророк.
Лучше смерть, как избавление,
Чем быть первой средь рабынь.
Знаешь ты моё решение-
Мой ответ: «Навеки сгинь!»
!соло Илья Князев
Dragon:Мир меняется,
Жизнь кончается
Ты обречена
И твоя страна!
Вариантов нет
Сфера Эль-Гилэт
В мир, где тьма и лёд
Приоткроет вход!
Dezmond:Кровь Эльфов на талисман
В Ночь Совмещения Деймос прольёт.
Зло, зависть, страх и обман
Он за собой в этот мир принесёт.
Кровь Эльфов на талисман
В Ночь Совмещения Деймос прольёт.
Зло, зависть, страх и обман
Он за собой в этот мир принесёт.
Deimos:Ваш мир – он мой
Ключ от него у меня под рукой!
Я обеспечу вам вечный покой!
Документ
Категория
Ноты, аккорды
Просмотров
17
Размер файла
6 Кб
Теги
кровь, эльфов, эпидемия
1/--страниц
Пожаловаться на содержимое документа