close

Вход

Забыли?

вход по аккаунту

?

Эпидемия - Н.А.С.Т.Я.

код для вставкиСкачать
*На краю времени* (1999)
Н.А.С.Т.Я.
!(Мелисов)
Вступление:<Dm B C> } 8 раз
Такое затишье:<D>.....<B>.......<А>
>Dm B C B A
Небо в бриллиантах, струящих свой свет.
Даст ли мне сердце тот верный ответ?
Ангел кристален и чист, как родник,
>Dm B C B F B F
К которому я бы устами приник!
>Dm G
Свет мой!
>B C Am
Путеводная нить ты моя!
> B
За собой ты ведёшь
> Am Dm
К той, что я никогда не смогу позабыть!
> G B C
Я её отыщу, несмотря ни на что.
>Am B
Может, я буду стар, но ещё время есть -
>Am Dm
Знаю я, ты ждёшь меня всегда!
Проигрыш:<Dm B C B A> } 2 раза
Только надежда поможет в пути,
Солнце ещё не успеет взойти -
Я уже буду на звёздной тропе,
В крылатых сандалиях лечу я к тебе!
Свет мой...
соло Juron
Свет мой...
coло Juron
Свет мой...
-
!табы:
riff 1:[E||------0-----8--5------------|-----------8------------8---|
B||---------6--------6---------|--------6------------8------|
G||--7-------------------7--5--|-----7------------9---------|
D||----------------------------|--8-----------10------------|
A||----------------------------|----------------------------|
E||----------------------------|----------------------------|]
riff 2:[E||-----------0--------------|-----------0-----------0--|
B||--------6-------6-----6--|--------6-----------6-----|
G||-----5-------------5-----|-----5-----------5--------|
D||--0-----------------------|---------------------------|
A||--------------------------|--------------3------------|
E||--------------------------|--6------------------------|]
riff 3:[E||-----------0--------------|-----------0--------------|
B||--------6-------6-----6--|--------6-------6-----6--|
G||-----5-------------5-----|-----5-------------5------|
D||--0-----------------------|--------------------------|
A||--------------------------|---------------------------|
E||--------------------------|--6-----------------------|
-----------0--------------|-----------------------1---|
--------6-------6-----6--|-----------3--------1-----|
-----5-------------5-----|--------3------------------|
--------------------------|-----3-----------3---------|
--3----------------------|--1-----------0------------|
--------------------------|---------------------------|]
riff 4:[E||--1--------1--------1-----|--1--------1--------1-----|
B||-----1--------1--------1--|-----1--------1--------1--|
G||--------3--------3--------|--------3--------3---------|
D||---------------------------|----------------------------|
A||---------------------------|----------------------------|
E||---------------------------|----------------------------|
--1--------1--------1-----|--1--------1--------1-----|
-----1--------1--------1--|-----1--------1--------1--|
--------2--------2---------|--------2--------2--------|
----------------------------|---------------------------|
----------------------------|---------------------------|
----------------------------|---------------------------|]
riff 5:[E||----------------------------|----------------------------|
B||----------------------------|-----------3--------3--1--|
G||--------0--2--------2--0--|--------0------------------|
D||-----0-----------0---------|-----3-----------2---------|
A||----------------------------|--1-----------3------------|
E||--3-----------1------------|----------------------------|
----------------------------|----------------------------|
----------------------------|-----------3--------3--1--|
--------0--2--------2--0--|--------0------------------|
-----0-----------0---------|-----3-----------2--------|
----------------------------|--1-----------3-----------|
--3-----------1------------|---------------------------|
-----------1---------------|----------0--1-----3-----|
--------3--------------3--|--------1--------3-----5--|
-----3--------------3-----|-----2---------------------|
-----------------5--------|----------------------------|
--1-----------------------|--0-----------1-----3-----|
--------------3-----------|----------------------------|]
riff 6:[E||--1--------0--------1----|
B||-----3--------3----------|
G||--------2--------2-------|
D||--0-----------------------|
A||---------------------------|
E||---------------------------|
--3--------3--------3----|--3--------0--------3----|-------------------------|
-----3--------3----------|-----3--------3-----------|--3--------3-------------|
--------0--------0-------|--------0--------0--------|-----5----------5----5--|
--------------------------|---------------------------|--------5----------5-----|
--2-----------------------|--1-----------------------|--3----------------------|
--------------------------|---------------------------|--------------------------|
--------------0------------|--------------0------------|
-----------1-----1-----1--|-----------3-----3-----3--|
--------2-----------2-----|--------3-----------3------|
-----2---------------------|-----3---------------------|
--0------------------------|--1------------------------|
----------------------------|---------------------------|
--------------0------------|---------------------------|-------------------------|
-----------1-----1-----1--|--------1--------1--------|--5--------5--------6----|
--------0-----------0-----|-----0--------0--------0--|-----7--------7----------|
-----2---------------------|----------------------------|--------7--------7-------|
--3------------------------|--3--------3--------3-----|--5----------------------|
---------------------------|----------------------------|-------------------------|
--3--------3--------3----|--3--------0--------3----|--------------------------|
-----3--------3-----------|-----3--------3----------|--3--------3-------------|
--------0--------0--------|--------0--------0-------|-----5----------5-----5--|
---------------------------|---------------------------|--------5----------5-----|
--2-----------------------|--1-----------------------|--3-----------------------|
--------------------------|---------------------------|---------------------------|
--------------------0-----|--------------0------------|
-----------1--3-----------|-----------3-----3-----3--|
--------2-----------------|---------3-----------3-----|
-----2--------------------|-----3---------------------|
--0-----------------------|--1------------------------|
---------------------------|---------------------------|
--------------0------------|---------------------------|
-----------1-----1-----1--|--------1--------1--------|
---------0----------0-----|-----0--------0--------0--|
-----2---------------------|----------------------------|
--3------------------------|--3--------3--------3-----|
---------------------------|----------------------------|]
riff7:[E||----------------------------|-----------------------------|
B||----------------------------|-----------------------------|
G||---------1-----2--1-----1-|---------1-----2--1-----1-|
D||----------------------------|-----------------------------|
A||------4-----4--------4----|------4-----4--------4------|
E||--2------------------------|--2--------------------------|
------------------0---------|-----------------0--------|
--------2-----0-----2-----|--------2-----0-----2-----|
-----2-----2-----------2--|-----2-----2-----------2--|
---------------------------|----------------------------|
--0-----------------------|--0-------------------------|
---------------------------|----------------------------|
---------------------------|----------------------------|
--------------0------------|--------------0------------|
--------1--------1-----1--|--------1--------1-----1--|
-----2-----2--------2-----|-----2-----2--------2-----|
---------------------------|----------------------------|
--0-----------------------|--0-------------------------|
--------------2------------|---------------2------------|
--------2--------2-----2--|---------2--------2-----2--|
-----2-----2--------2-----|------2-----2--------2-----|
--0------------------------|--0-------------------------|
---------------------------|-----------------------------|
---------------------------|-----------------------------|]
riff8:[E||--------------------|---------------------|----------------------|
B||--------------------|---------------------|----------------------|
G||--2------------2---|---------------------|--0------------0----|
D||--0------------0---|--3------------3----|---------------------|
A||--------------------|--1------------1----|--3------------3----|
E||--------------------|---------------------|---------------------|
------------------------|----------------------|---------------------|
-------------1------1--|---------------------|----------------------|
------------------------|--2------------2----|----------------------|
--3------3--3------3--|--0------------0----|--3------------3----|
--1------1------------|----------------------|--1------------1----|
------------------------|----------------------|---------------------|
---------------------|-------------------------|-------------------------------|
---------------------|--------------1------1--|-------------------------------|
--0------------0----|-------------------------|-------------------------------|
----------------------|--3------3--3------3--|--3--------3--------3h2-----|
--3------------3----|--1------1--------------|-----5--5-----5--5-------5--|
----------------------|------------------------|-------------------------------|
------------------------------|------------------------------|
------------------------------|------------------------------|
------------------------------|------------------------------|
--3--------3--------3h2----|--2--------2--------2h3----|
-----1--1-----1--1------1--|-----3--3-----3--3------3--|
------------------------------|------------------------------|
------------------------------|-------------------------------|
------------------------------|-------------------------------|
-----------------0-----------|-------------------------------|
-----3--2--0--------3--2---|--3--------3--------3h2-----|
--1-----------3--------------|-----5--5-----5--5-------5--|
------------------------------|-------------------------------|
------------------------------|------------------------------|
------------------------------|------------------------------|
------------------------------|------------------------------|
--3--------3--------3h2----|--2--------2--------2h3----|
-----1--1-----1--1------1--|-----3--3-----3--3------3--|
------------------------------|------------------------------|
-----------------------------|--------------------|
-----------------------------|--------------------|
-----------------0----------|--3-----------------|
-----3--2--0--------3--2--|--3----------------|
--1-----------3-------------|--1----------------|
-----------------------------|--------------------|]
!Структура:
Intro:riff 1 x 4
Параллельно вступает riff 2
riff 1
x 4
riff 2
riff 3 x 4
Куплет:riff 3 x 4
Проигрыш 1:riff 4 x 2
riff 5
Припев:riff 6
Проигрыш 2:riff 3 x 2
Куплет:riff 3 x 4
Проигрыш 1:riff 4 x 2; riff 5
Припев:riff 6
Соло1:(гармония под соло1 riff3 (не помню сколько раз), затем riff4 x 2, затем riff5);
Припев:riff 6
Соло2:(гармония под соло2 riff7 x 3, затем riff3 x 2);
Припев:riff 6
Концовка:(параллельно идет riff8)
riff 3 x 4
(riff8 - параллельно)
!Вот и все играется все легко
-
Текст:Небо в бриллиантах, струящих свой свет.
Даст ли мне сердце тот верный ответ?
Ангел кристален и чист, как родник,
К которому я бы устами приник!
Свет мой!
Путеводная нить ты моя!
За собой ты ведёшь
К той, что я никогда не смогу позабыть!
Я её отыщу, несмотря ни на что.
Может, я буду стар, но ещё время есть -
Знаю я, ты ждёшь меня всегда!
Только надежда поможет в пути,
Солнце ещё не успеет взойти -
Я уже буду на звёздной тропе,
В крылатых сандалиях лечу я к тебе!
Свет мой...
!соло Juron
Свет мой...
!coло Juron
Свет мой...
Документ
Категория
Ноты, аккорды
Просмотров
10
Размер файла
12 Кб
Теги
эпидемия
1/--страниц
Пожаловаться на содержимое документа