close

Вход

Забыли?

вход по аккаунту

?

Эпидемия - На Краю Времени

код для вставкиСкачать
*На краю времени* (1999), Жизнь В Сумерках (2005)
На Краю Времени
!(Мелисов/Захаров)
!Эту подборку одна моя очень хорошая знакомая зделала на пианино.
!У неё это звучит похоже. Я играл на аккустике, не похоже. Дерзайте.
>Dm
Дай ответ -
>_____________________B___C___Dm
Зачем прошёл я сотни световых лет?
>Dm
Ночь и свет!
>___________________B__C____Dm
Я видел гибель и рождение планет!
>F________Am______B____Gm_A
Который раз я вижу этот сон,
Но не пойму: я призван или обречён?
Проигрыш:<Dm B C -&gt; Dm B C ХЕЙ!!! Dm B C -&gt; Dm B C>
>Dm_______F______B
Вечные сумерки здесь,
>Dm__________F_______B
Нет здесь зверей и цветов.
>Dm____________________B____Gm___C
Там ветра нет, там странный замок стоит
>Am_______B
На краю времени!
В окне есть свет, но для кого он горит?
На краю времени!
>Gm_________C______Dm
Решаются судьбы планет!
Стой!
Граница мира выросла стеной.
Ты герой!
Пускай никто не видел подвиг твой.
Просил богов не дать пойти на дно,
Но оказалось, что я продал их давно!
Вечные сумерки здесь,
Нет ни друзей, ни врагов
Там ветра нет, там странный замок стоит
На краю времени!
В окне есть свет, но для кого он горит?
На краю времени!
Решаются судьбы планет!
!соло Juron
Вечные сумерки здесь,
Нет ни людей, ни богов
Там ветра нет, там странный замок стоит
На краю времени!
В окне есть свет, но для кого он горит?
На краю времени!
Решаются судьбы планет!
!соло Рома
>Dm__________B
Свет и Тьма, Мир и Война
>Gm____________C
Встретятся здесь -
>Am_________B
На краю времени!
Плач и смех, святость и грех
Сходятся здесь -
На краю времени!
Спеши, спеши - место есть в этом замке!
На краю времени } Х4
На краю времени,
На краю времени
Для нас!!!
-
!попробовал сыграть припев примерно так:
[E||---------------------------|---------------------------|
B||---------------------------|---------------------------|
G||*--------------------------|---------------------------|
D||*--7--------5--------7-----|--10--------8--------7-----|
A||------5--5-----5--5-----5--|------8--8-----8--8-----8--|
E||---------------------------|---------------------------|]
вечные сумерки
[--------------------------|---------------------------||--------------------|
--------------------------|---------------------------||--------------------|
--------------------------|--------------------------*||*-------------------|
--3--------2--------3-----|--3--------2--------3-----*||*--7----------------|
-----1--1-----1--1-----1--|-----1--1-----1--1-----1---||---5----------------|
--------------------------|---------------------------||--------------------|]
здесь...
[-------------------|-------------------|--------------------|
-------------------|-------------------|--------------------|
-------------------|-------------------|--------------------|
--3----------------|-------------------|-----------3--------|
--1----------------|--5----------------|--7--------1--------|
-------------------|--3----------------|--5-----------------|
--------------------------|---------------------------||-------------------|
--------------------------|---------------------------||-------------------|
--------------------------|--------------------------*||-------------------|
--------------------------|--3-----------3-----------*||-------------------|
--7-----------7-----------|--1--1--1--1--1--1--1--1---||--5----------------|
--5--5--5--5--5--5--5--5--|---------------------------||--3----------------|
-------------------|
-------------------|
-------------------|
--5----------------|
--3----------------|
-------------------|]
-
Текст:Дай ответ -
Зачем прошёл я сотни световых лет?
Ночь и свет!
Я видел гибель и рождение планет!
Который раз я вижу этот сон,
Но не пойму: я призван или обречён?
Вечные сумерки здесь,
Нет здесь зверей и цветов.
Там ветра нет, там странный замок стоит
На краю времени!
В окне есть свет, но для кого он горит?
На краю времени!
Решаются судьбы планет!
Стой!
Граница мира выросла стеной.
Ты герой!
Пускай никто не видел подвиг твой.
Просил богов не дать пойти на дно,
Но оказалось, что я продал их давно!
Вечные сумерки здесь,
Нет ни друзей, ни врагов
Там ветра нет, там странный замок стоит
На краю времени!
В окне есть свет, но для кого он горит?
На краю времени!
Решаются судьбы планет!
!соло Juron
Вечные сумерки здесь,
Нет ни людей, ни богов
Там ветра нет, там странный замок стоит
На краю времени!
В окне есть свет, но для кого он горит?
На краю времени!
Решаются судьбы планет!
!соло Рома
Свет и Тьма, Мир и Война
Встретятся здесь -
На краю времени!
Плач и смех, святость и грех
Сходятся здесь -
На краю времени!
Спеши, спеши - место есть в этом замке!
На краю времени } Х4
На краю времени,
На краю времени
Для нас!!!
Документ
Категория
Ноты, аккорды
Просмотров
10
Размер файла
5 Кб
Теги
времени, краю, эпидемия
1/--страниц
Пожаловаться на содержимое документа