close

Вход

Забыли?

вход по аккаунту

?

Эпидемия - Прощай, мой дом

код для вставкиСкачать
*На краю времени* (1999)
Прощай, мой дом
!(Мелисов)
!Verse riff (repeat 2x):
> Amadd9 Am+5add9 Cmaj7 Cmaj7/G
|--------------|--------------|--------------|----------(0)-|
|-----------1--|-----------0--|-----------0--|-----------0--|
|--------4-----|--------5-----|--------5-----|--------5-----|
|-----2--------|-----3--------|-----5--------|-----5--------|
|--0-----------|--0-----------|--3-----------|--------------|
|--------------|--------------|--------------|--3-----------|
Verse 1:В доме моем свет не горит,
Он опустел, в нем живет тишина.
Ты не придешь - что-то мне говорит,
Но я тебя жду, не отходя от окна.
>Fmaj7 Emadd3 Gm6/Bb A7
Припев:Ночь или день - мне уже все равно,
> Dm7
Все решено.
>Csus2 Am9-5
Навсегда покину этот дом,
> Gm6/Bb A7
В нем ничто уже не держит меня.
Я оставлю все, что было в нем
И уйду, тебя не виня.
>Fmaj7
Я покину город до зари,
> Gm6/Bb A7
Взять забыв горечь обид,
>Fmaj7
Пусть погаснут все фонари,
> Gm6/Bb A7
Мне луна путь озарит.
Verse 2:Только вчера были вдвоем,
Кто виноват - лишний вопрос,
Ведь все равно ответ не найдем
Много и черных, и белых полос.
> Fmaj7?
Прощай, мой дом,
Я здесь чужой,
Как стало тихо в нем,
> Fmaj7? G
Когда не слышен голос твой.
!Solo (пока не подобрано).
!Припев.
>Fmaj7?:
|-------------------|
|*-----------0-----*|
|--------5-------5--|
|------5---5---5----|
|*-----------------*|
|--0-1--------------|
Документ
Категория
Ноты, аккорды
Просмотров
12
Размер файла
2 Кб
Теги
прощай, мой, эпидемия, дом
1/--страниц
Пожаловаться на содержимое документа