close

Вход

Забыли?

вход по аккаунту

?

Эпидемия - Эпилог

код для вставкиСкачать
Эльфийская рукопись
Эпилог
[3-G ---0--7----------------5--5--------7--7--8---7--5--2---3--2--0-
2-B --------8--------8-6---6---6---8---8---------------------------
1-E ----------5-6--5--------------5--------------------------------]
-
!Гитары настроены в <Eb>
!Gtr I - Acoustic <G>
[Eb|-----4--6-7-6-4-|-2---2-----6-|-4---4---------|-----------|
Bb|---4------------|---2---2-7---|---0---0-5-4-2-|-----------|
Gb|----------------|-------------|---------------|-3--4-3----|
Db|----------------|-------------|---------------|-----------|
Ab|----------------|---------6---|---------4-----|-----------|
Eb|-4--------0-----|-2-----------|-0-------------|-2---------|
Eb|-----4-6-7---6-4-|-2---2------6--|-4---4-----------|------|
Hb|---4-------------|---2---2-7-----|---0---0-5---4-2-|------|
Bb|-4---------------|---------------|-----------------|-3----|
Db|-----------------|---------------|-----------------|------|
Ab|-----------------|---------6-----|---------4-------|------|
Eb|-4-------0-------|-2-------------|-0---------------|-2----|]
!Gtr. II - Dist. <G> - ритм (соло было вподляк подбирать, да и тема
! лёгкая кому надо - тот сам подберёт, может ещё подберу)
[Eb|----------------|-----------------|-----------------|----------------|
Hb|----------------|-----------------|-----------------|----------------|
Bb|----------------|-----------------|-----------------|----------------|
Db|----------------|-----------------|-----------------|-8-----8-----8--|
Ab|6-----6-----6---|-2-----2-----2---|-4-----4-----4---|-6-6-6-6-6-6-6-6|
Eb|4-4-4-4-4-4-4-4-|-0-0-0-0-0-0-0-0-|-2-2-2-2-2-2-2-2-|----------------|
!p. m. p. m. p. m. p. m. p. m. p. m. p. m. p. m. p. m. p. m. p. m.
Eb|-----------------|-----------------|--------------------|
Hb|-----------------|-----------------|--------------------|
Bb|-----------------|-----------------|--------------------|
Db|-----------------|-6-----6-----6---|--------------------|
Ab|-2-----2-----2---|-4-4-4-4-4-4-4-4-|-4-----4-----4------|
Eb|-0-0-0-0-0-0-0-0-|-----------------|-2-2-2-2-2-2-2-2----|]
!p. m. p. m. p. m. p. m. p. m. p. m. p. m. p. m. p. m.
-
!Вот моё представление об табах эпилога.
!Кое что я конечно брал из оригинальной мидишки,
!но если кого-то что-то не устраивает - пусть
!сам подбирает или выставляет. Сам первый момент
!давно подобрал, но только недавно разобрал его
!до конца - ИГРАТЬ РЕАЛЬНО.
!Вот начало, подобранное мной. Можно играть
!по-другому, но так удобнее, если не просто пальцами,
!а оставляяпо возможности аккордами.
[E||-----------------5----|--6------------5-----|----------------------|
B||------------8---------|------------------8--|--6---------6---------|
G||---------7------------|---------------------|---------5-------5----|
D||----------------------|---------------------|----------------------|
A||----------------------|---------------------|----------------------|
E||--3-------------------|---------------------|----------------------|
-----------5--------|----------------------|---------------------|
--6-----------------|--8---------8---------|---------------------|
--------------------|----------------------|--8------------7--5--|
--------------------|---------8-------8----|---------------------|
--------------------|----------------------|---------------------|
--------------------|----------------------|---------------------|
---------------------|-----------------5----|--6------------5-----|
---------------------|------------8---------|------------------8--|
--2------------3--2--|--0------7------------|---------------------|
---------------------|----------------------|---------------------|
---------------------|----------------------|---------------------|
---------------------|----------------------|---------------------|
----------------------|-----------5--------|----------------------|
--6---------6---------|--6-----------------|--8---------8---------|
---------5-------5----|--------------------|----------------------|
----------------------|--------------------|---------8-------8----|
----------------------|--------------------|----------------------|
----------------------|--------------------|----------------------|
---------------------|---------------------|-------------------|
---------------------|---------------------|-------------------|
--8------------7--5--|--2------------3--2--|--0----------------|
---------------------|---------------------|-------------------|
---------------------|---------------------|-------------------|
---------------------|---------------------|-------------------|]
!Далее начинаются аккорды и слова))))
(О-о-о-о---о-о-о--о-о--о-о--о--о--о-о-о--о---о-о-о----о-о-о)
!Потом, идет вставка, наполовину мною подредактированная:
[E||------------------|--------------------|--------------------|
B||------------------|--------3--------4--|--------1--1--3--4--|
G||------------------|--0--3-----0--3-----|-----0--------------|
D||------------------|--------------------|--1-----------------|
A||------------------|--------------------|--------------------|
E||------------------|--------------------|--------------------|
--------------------|--1-----------------|--------------------|
--------3--------4--|-----4--3--1--3--4--|--------3--------4--|
--0--3-----0--3-----|--------------------|--0--3-----0--3-----|
--------------------|--------------------|--------------------|
--------------------|--------------------|--------------------|
--------------------|--------------------|--------------------|
--------------------|--------------------|--1-----------------|
--------1--1--3--4--|--------3--------4--|-----4--3--1--3--4--|
-----0--------------|--0--3-----0--3-----|--------------------|
--1-----------------|--------------------|--------------------|
--------------------|--------------------|--------------------|
--------------------|--------------------|--------------------|
--------------------|--------------------|-------------------------|
--------3--4--3--1--|--4--3--1--------1--|-------------------------|
--0--3--------------|-----------2--3-----|-------0-----3--0-----0--|
--------------------|--------------------|----1-----1--------1-----|
--------------------|--------------------|-------------------------|
--------------------|--------------------|-------------------------|
-----------------------|------------------|------------------|
----------------1------|------------------|------------------|
--------2-----2--------|------------------|------------------|
-----3-----3-----------|------------------|------------------|
-----------------------|------------------|------------------|
-----------------------|------------------|------------------|]
!И в самом конце идёт такая интересная вещь)))
!Там идёт повтор, разбирайте сами))) Звучит реально, взято из midi Юрона:
[E||--------------------------|-------------------------|--------------------------|
B||--------------3-----------|-------------------------|--------------1-----------|
G||-----3--0--------3--0--3--|----0--------3--0-----0--|-----2-----------2-----2--|
D|-----------0--------------|-------1-----------1-----|--------3-----------3-----|
A||--------------------------|----------1--------------|-----------3--------------|
E||--3-----------------------|-------------------------|--1-----------------------|
-----1--------5-----------|-------------------------|--------------3-----------|
--------3--------6-----6--|-------------------------|-----4-----------4-----4--|
-----------2--------7-----|-------------3--0-----0--|--------5-----------5-----|
--0-----------------------|----5--------------1-----|-----------5--------------|
--------------------------|-------6-----------------|--3-----------------------|
--------------------------|----------6--------------|--------------------------|
--------------------------|--------------------------|-------------------------|
--------------1-----------|--------------3-----------|-------------------------|
-----2-----------2-----2--|-----3--0--------3--0--3--|----0--------3--0-----0--|
--------3-----------3-----|-----------0--------------|-------1-----------1-----|
-----------3--------------|--------------------------|----------1--------------|
--1-----------------------|--3-----------------------|-------------------------|
--------------------------|-----1--------5-----------|-------------------------|
--------------1-----------|--------3--------6-----6--|-------------------------|
-----2-----------2-----2--|-----------2--------7-----|-------------3--0-----0--|
--------3-----------3-----|--0-----------------------|----5--------------1-----|
-----------3--------------|--------------------------|-------6-----------------|
--1-----------------------|--------------------------|----------6--------------|
--------------3-----------|--------------------------|
-----4-----------4-----4--|--------------1-----------|
--------5-----------5-----|-----2-----------2-----2--|
-----------5--------------|--------3-----------3-----|
--3-----------------------|-----------3--------------|
--------------------------|--1-----------------------|
--------------------------|-------------------------|--------------------------|
--------------3-----------|-------------------------|--------------1-----------|
-----3--0--------3--0--3--|----0--------3--0-----0--|-----2-----------2-----2--|
-----------0--------------|-------1-----------1-----|--------3-----------3-----|
--------------------------|----------1--------------|-----------3--------------|
--3-----------------------|-------------------------|--1-----------------------|
-----1--------5-----------|-------------------------|--------------3-----------|
--------3--------6-----6--|-------------------------|-----4-----------4-----4--|
-----------2--------7-----|-------------3--0-----0--|--------5-----------5-----|
--0-----------------------|----5--------------1-----|-----------5--------------|
--------------------------|-------6-----------------|--3-----------------------|
--------------------------|----------6--------------|--------------------------|
--------------------------|--------------------------|-------------------------|
--------------1-----------|--------------3-----------|-------------------------|
-----2-----------2-----2--|-----3--0--------3--0--3--|----0--------3--0-----0--|
--------3-----------3-----|-----------0--------------|-------1-----------1-----|
-----------3--------------|--------------------------|----------1--------------|
--1-----------------------|--3-----------------------|-------------------------|
--------------------------|-----1--------5-----------|-------------------------|
--------------1-----------|--------3--------6-----6--|-------------------------|
-----2-----------2-----2--|-----------2--------7-----|-------------3--0-----0--|
--------3-----------3-----|--0-----------------------|----5--------------1-----|
-----------3--------------|--------------------------|-------6-----------------|
--1-----------------------|--------------------------|----------6--------------|
--------------3-----------|--------------------------||
-----4-----------4-----4--|--------------1-----------||
--------5-----------5-----|-----2-----------2-----2--||
-----------5--------------|--------3-----------3-----||
--3-----------------------|-----------3--------------||
--------------------------|--1-----------------------||
!Ну вот и всё, спасибо Юрону, что выложил мидишки,
!без них тяжеловато было бы затабить Эпилог. Учите, наслаждайтесь.
-
!ЭПИ-лог я играю так: (конечно гитару надо перестроить в <Eb>,
!если хочется звука, как в оригинале, если все равно,
!тогда можно играть и в <Е>, мелодя останется той же):
!Вся песня строится на одной гармонии (за исключением аккустики
!в середине мелодии): <G#m E F# D#m E C#m F#>
[E||------|------------4----6----|--7------------6--4--|--2---------2---------|
B||------|---------4-------------|----------------------|---------2-------2----|
G||------|-----------------------|----------------------|----------------------|
D||------|-----------------------|----------------------|----------------------|
A||------|-----------------------|----------------------|----------------------|
E||------|--4-------------------|--0-------------------|--2-------------------|
-----------6--------|-----------------------|------------------------|
--7-----------------|--9---------9---------|--5------------4-------|
---------------------|-----------------------|--------------------6--|
---------------------|---------9-------9----|------------------------|
--6-----------------|--7--------------------|--4--------------------|
---------------------|-----------------------|------------------------|
-----------------------|
-----------------------|
--3------------4--3--|
-----------------------|
-----------------------|
--2--------------------|]
!эту тему играем 2 раза, затем, когда пошел перегруз, играем квинтами:
>G#5 E5 F#5 D#5 E5 C#5 F#5 } x2
!затем играем palm muting'ом и пристукиваем что есть мочи гриндерсом по полу:
>G#5 E5 F#5 D#5 E5 C#5 F#5 } x2
!потом аккустика:
|---------------------|
|--------4--------5--|
|-----4--------4-----|
|--6--------6--------|
|---------------------|
|---------------------|
[----------------------|----------------------|--2--------------------|
----------------------|---------4--------5--|-----5--4--2--4--5--|
--6--------6--8--9--|-----4--------4-----|-----------------------|
--------6------------|--6--------6---------|-----------------------|
-----7---------------|----------------------|-----------------------|
----------------------|----------------------|-----------------------|
---------------------|----------------------|----------------------|
--------4--------5--|----------------------|--------4--------5--|
-----4--------4-----|--6--------6--8--9--|-----4--------4-----|
--6--------6--------|--------6-------------|--6--------6--------|
---------------------|-----7----------------|---------------------|
---------------------|----------------------|----------------------|
--2--------------------|---------------------|----------------------|
-----5--4--2--4--5--|--------4--5--4-----|--5--4-----------2--|
-----------------------|-----4-----------6--|--------6--3--4-----|
-----------------------|--6------------------|---------------------|
-----------------------|---------------------|----------------------|
-----------------------|---------------------|----------------------|
-----------------------------|-----------------------|
-----------------------------|-----------------------|
--1-----1-----4--1-----1--|--3-----3-----6------|
------2-----2--------2-----|-----4-----4----------|
-----------------------------|-----------------------|
-----------------------------|-----------------------|]
!далее юзаем ту же гармонию:
>G#5 E5 F#5 D#5 E5 C#5 F#5 !и играем соло, можно импровизировать,
!можно как в оригинале (старался подобрать точно):
|-----------------------|-----------------------|------------------------|
|-----------------------|-----------------------|------------------------|
|-----------------------|-----------------------|------------------------|
|------------6----8----|--9------------8--6--|------------------------|
|---------6------------|------------------------|--9---------9---------|
|--4-------------------|------------------------|---------9-------9----|
[---------------------|------------------------|----------------------|
---------------------|------------------------|----------------------|
---------------------|------------------------|----------------------|
-----------8--------|--6----------6---------|----------------------|
--9-----------------|------------------------|--7------------6-----|
---------------------|---------7-------7-----|------------------9--|
---------------7--6--|--7---------4----6----|--7------------6--4--|
----------------------|---------4-------------|-----------------------|
----------------------|-----------------------|------------------------|
----------------------|-----------------------|------------------------|
----------------------|-----------------------|------------------------|
--6------------------|------------------------|------------------------|
-----------------------|-----------6--------|--4---------4---------|
--7---------7---------|--7-----------------|-----------------------|
---------6-------6----|--------------------|---------4-------4----|
-----------------------|--------------------|------------------------|
-----------------------|--------------------|------------------------|
-----------------------|--------------------|------------------------|
----------------------|--------------------|-----------4----6----|
--5------------4-----|-------------------|--------4------------|
-------------------6--|--3----------------|---------------------|
----------------------|--------------------|---------------------|
----------------------|--------------------|---------------------|
----------------------|--------------------|---------------------|
--7------------6--7--|--7b(9)r(7)-----6h7p6---------|------------9----6----|
----------------------|------------------------------9----|--7-------------------|
----------------------|-----------------------------------|--------8--------------|
----------------------|------------------------------------|----------------------|
----------------------|------------------------------------|----------------------|
----------------------|------------------------------------|----------------------|
--7------6h7p6-------------|-------------------------|
--------------------9---------|---------------11--12--|
-------------------------8----|--9----------------------|
-------------------------------|-------------------------|
-------------------------------|-------------------------|
-------------------------------|-------------------------|
--14------12------11----------------|---------------------------------------|
------11------11------11--14--11--|--11h12--12--12~-----11--12--|
----------------------------------------|--------------------------------------|
----------------------------------------|--------------------------------------|
----------------------------------------|--------------------------------------|
----------------------------------------|--------------------------------------|
--14b(16)r(14)-----14--12----11h12p11--|----------------------------|
--------------------------------------------------|--14~-----------12--14--|
--------------------------------------------------|----------------------------|
--------------------------------------------------|----------------------------|
--------------------------------------------------|----------------------------|
--------------------------------------------------|----------------------------|
----------------------------------------------|-----------------------------|
--14b(16)r(14)-----14--12----11h12---|--12~-----------11--12--|
----------------------------------------------|-----------------------------|
----------------------------------------------|-----------------------------|
----------------------------------------------|-----------------------------|
----------------------------------------------|-----------------------------|
----------------------------------------------------|
--12b(14)r(12)---12-----11h12p11----9----|
----------------------------------------------------|
----------------------------------------------------|
----------------------------------------------------|
----------------------------------------------------|
|--14----14----12----12----11----11------------------------|
|------11----11----11----11----11----11h14p11h14p11h|
|-----------------------------------------------------------------|
|-----------------------------------------------------------------|
|-----------------------------------------------------------------|
|-----------------------------------------------------------------|
-----------------------------------------------------------------------|
-h12p11h12p11h12p11h12p11h12p11h12p11h12p11---|
-----------------------------------------------------------------------|
-----------------------------------------------------------------------|
------------------------------------------------------------------------|
------------------------------------------------------------------------|]
!Далее концовка, играем аккорды <G#m E F# D#m E C#m F#> пока не надоест ))
!следующим перебором, под конец можно заюзать другой перебор,
!с использованием 1 струны, но аккорды те же... будет красиво звучать...
[------------------|--------------------------|
------------------|--------------x-----------|
------------------|-----x-----------x-----x--|
------------------|--------x-----------x-----|
------------------|-----------x--------------|
------------------|--x-----------------------|]
!приятной игры...
Документ
Категория
Ноты, аккорды
Просмотров
104
Размер файла
21 Кб
Теги
эпидемия, эпилог
1/--страниц
Пожаловаться на содержимое документа