close

Вход

Забыли?

вход по аккаунту

?

Эпидемия - Я молился на тебя

код для вставкиСкачать
Загадка волшебной страны (2001)
Я молился на тебя
!(музыка и слова - Юрий Мелисов)
>Dm C Am Dm
(1)Голос твой затих,
>Dm C Am Dm
Растворяясь в ночи -
>F G C Am
Ты исчезла во мгле,
>Dm C Am Dm
Словно пламя свечи.
(2)В моих снах нету слез -
В них я рядом с тобой.
Просыпаюсь в бреду -
Пусто рядом со мной.
>F G C
Переход:В моем сердце пустота,
>F E
А душа моя мертва!
> Dm G
Припев:Я молился на тебя,
> C Em Am
Я смотрел в твои глаза,
> F G
Словно звезды в небесах
> C Am
Мне сияли они.
> Dm G
Дарят свет они не мне -
> C Em Am
Я остался в тишине,
> F E
Только в доме моем смех
> Am
До сих пор твой звенит.
> F E
В доме моем смех
> Am
До сих пор твой звенит.
(3)Вроде только вчера
Был я рядом с тобой,
Твою руку держал,
Как в мечте золотой.
(4)Ледяная вода
Заменяет мне кровь,
Потому что обман
Уничтожил любовь!
!Переход
!Припев
!соло Juron
!Переход
!Припев } 2 раза
-
>Hm A Em G
(1)Голос твой затих,
>Hm A Em G
Растворяясь в ночи -
>D G A A7
Ты исчезла во мгле,
>Hm A Em G
Словно пламя свечи.
[E---0-0h2h3p0-0h2p0-------|-------0h2h3p0-0h2p0-5h7p5-|
H-------------------3p2p0-|-0h2h5---------------------|
G-----------------------------------------------------|
D-----------------------------------------------------|
A-----------------------------------------------------|
E-----------------------------------------------------|]
(2)В моих снах нету слез -
В них я рядом с тобой.
Просыпаюсь в бреду -
Пусто рядом со мной.
>G A Hm
Переход:В моем сердце пустота,
>G A F#
А душа моя мертва!
> G A
Припев:Я молился на тебя,
> Hm D Em
Я смотрел в твои глаза,
> G A
Словно звезды в небесах
> Hm
Мне сияли они.
> G A
Дарят свет они не мне -
> Hm D Em
Я остался в тишине,
> Em F#
Только в доме моем смех
> G
До сих пор твой звенит.
> Em F#
В доме моем смех
> Hm
До сих пор твой звенит.
(3)Вроде только вчера
Был я рядом с тобой,
Твою руку держал,
Как в мечте золотой.
(4)Ледяная вода
Заменяет мне кровь,
Потому что обман
Уничтожил любовь!
!Переход
!Припев
!соло Juron
!Переход
!Припев } 2 раза
-
!Табулатура
!куплет
[E-|---------------------------5----------------
B-|-----3-------2-------3-------3--------------
G-|-------4-------2-------0-------4------------ } 2 раза
D-|---4-------2--------------------------------
A-|-2-------0---------2------------------------
E-|-----------------0-------3------------------
E-|-------2-------2----------------------------|
B-|-----3-------3---------2-3-2h3p2---2h3------|
G-|---2-------2---------2-----------4----------| } 1 раз, потом 1-ая
D-|-0-----------------2------------------------| } фигура
A-|-----------------0--------------------------|
E-|---------3----------------------------------|]
!гармония под проигрыш
[E-|-0--------------2--------------0------------|
B-|-0--------------3--------------2------------|
G-|-0--------------2--------------2------------| } 2 раза, потом 1-ая
D-|-2--------------0--------------2------------| } и 2-ая фигуры
A-|-2--------------0--------------0------------|
E-|-0-----------------------------0------------|]
!проигрыш
[E-|----------------------------------------------------------------
B-|-----------------------------------------------------/15-14-----
G-|-9h11/12-11---9h11-9---/7-6----9h11/12-11---9h11-9--------------
D-|----------------------------------------------------------------
A-|----------------------------------------------------------------
E-|----------------------------------------------------------------
E-|-3-3-x-x-5-5-x-x-7-7-x-x-5-5---5--5--5-------------------
B-|-3-3-x-x-5-5-x-x-7-7-x-x-5-5---5--5--5-------------------
G-|-4-4-x-x-6-6-x-x-7-7-x-x-6-6---6--6--6-------------------
D-|-5-5-x-x-7-7-x-x-9-9-x-x-7-7---7--7--7-------------------
A-|-5-5-x-x-7-7-x-x-9-9-x-x-7-7---7--7--7-------------------
E-|-3-3-x-x-5-5-x-x-7-7-x-x-5-5---5--5--5-------------------
E-|-3-3-x-x-5-5-x-x-2--2--2--2--2---------------------------|
B-|-3-3-x-x-5-5-x-x-2--2--2--2--2---------------------------|
G-|-4-4-x-x-6-6-x-x-3--3--3--3--3---------------------------|
D-|-5-5-x-x-7-7-x-x-4--4--4--4--4---------------------------|
A-|-5-5-x-x-7-7-x-x-4--4--4--4--4---------------------------|
E-|-3-3-x-x-5-5-x-x-2--2--2--2--2---------------------------|]
!припев
[E-|---------------------------------------------------------
B-|---------------------------------------------------------
G-|----2----------------------------------------------------
D-|-2--2--4------2-----4------------------------------------
A-|-2--0--2-4-5--2--4--2-2-2-2-2-2-2-2-2-2-2-2-2-2-2-2------
E-|-0-------2-3--0--2---------------------------------------
E-|---------------------------------------------------------
B-|---------------------------------------------------------
G-|----2----------------------------------------------------
D-|-2--2------4-----------2--4------------------------------
A-|-2--0--2-2-2------4-5--2--2-4-5--------------------------
E-|-0------------2-2-2-3--0----2-3-3-3-3-3-3-3-3-3----------
E-|--------------------------------------------|
B-|--------------------------------------------|
G-|--------------------------------------------|
D-|-2-----4------------------------------------|
A-|-2--4--2------------------------------------|
E-|-0--2---------------------------------------|]
Обозначения:h - hammer
p - pull
x - muting
/ - slaid
-
>Hm A Em G
Голос твой затих,
>Hm A Em G
Растворяясь в ночи –
>D G A F#
Ты исчезла во мгле,
>Hm A Em G
Словно пламя свечи.
В моих снах нету слёз –
В них я рядом с тобой.
Просыпаюсь в бреду –
Пусто рядом со мной.
>G A Hm A
В моём сердце пустота,
>G A F#
А душа моя мертва!
>G A Hm A G
Припев:Я молился на тебя, я смотрел в твои глаза,
>G A Hm
Словно звёзды в небесах мне сияли они.
>G A Hm A G
Дарят свет они не мне – я остался в тишине,
>Em F# G
Только в доме моём смех до сих пор твой звенит.
>Em F# Hm
В доме моём смех до сих пор твой звенит.
Вроде только вчера был я рядом с тобой,
Твою руку держал, как в мечте золотой.
Ледяная вода заменяет мне кровь,
Потому что обман уничтожил любовь!
В моём сердце пустота,
А душа моя мертва!
!Припев
В моём сердце пустота,
А душа моя мертва!
!Припев
-
!Бac пapтия
!Кoгдa, гдe вcтyпaть, cлyшaйтe opигинaл
[G||--------------------|--------------------|--------------------|
D||--------------------|--------------------|--------------------|
A||--2--------0--------|--------------------|--2--------0--------|
E||--------------------|--0--------3--------|--------------------|
--------------------|--------------------|-------------------|
--------------------|--0-----------------|-------------------|
--------------------|--------------------|--0----------------|
--0--------3--------|-----------3--------|-------------------|
--------------------|--------------------|----------------------|
--------------------|--------------------|----------------------|
--2--------0--------|--------------------|------------0------0--|
--------------------|--0--------3--------|--3------3------------|
----------------------|----------------------|-----------------------|
----------------------|----------------------|-----------------------|
--2------2--0------0--|------------0------0--|-----------------------|
----------------------|--3------3------------|--2--2--2--2--2--------|
-------0----------------|------------------------------|
----------0-------2-----|------------------------------|
-------------0-------4--|--2-2-2-----------------------|
--0---------------------|---------2-2-2--3-3-3--3-3-3--|
-------0----------------|------------------------------|
----------0-------4-----|----------------0-0-0--0-0-0--|
---------------------4--|--2-2-2--2-2-2----------------|
--0----------2----------|------------------------------|
-------0----------------|------------------------------|
----------0-------2-----|------------------------------|
-------------0-------4--|--2-2-2-----------------------|
--0---------------------|---------2-2-2--3-3-3--3-3-3--|
-------0---------4------3--|-----------------------0-----|
----------0---------4-4----|--------------------------0--|
-------------2-2-----------|-----------------------------|
--0------------------------|--3-3-3-3-3-3-3-3-0----------|
------4------3-----------|--------------------|-----------------------|
---------4-4-------------|--------------------|-----------------------|
--2-2-----------2--------|----------2------2--|--0----0--0------------|
-------------------------|--------------------|-------------0------0--|
-----------------------|-----------------------|-----------------------|
-----------------------|-----------------------|-------------0------0--|
-------------2------2--|--0----0--0------------|-----------------------|
--3----3--3------------|-------------0------0--|--3----3--3------------|
-----------------------|-----------------------|-----------------------|
-----------------------|-----------------------|-----------------------|
--2----------0------0--|--4----0--0--2------2--|--0----0--0------------|
-------3--3------------|-----------------------|-------------0------0--|
----------------0--------|--------------------------|-----------------0--------|
----------------------2--|--0--4--0--4--------------|--------2--------------2--|
-------------------2-----|--------------0--0--4--0--|--0--0-----0--------2-----|
--3----3--3--0-----------|--------------------------|--------------0-----------|
--------------6--4--2--0--|------------------------|-----------------------|
--0--4--0--4--------------|--4--2--0--2------------|-----------------------|
--------------------------|--------------2------2--|--0----0--0------------|
--------------------------|------------------------|-------------0------0--|
-----------------------|-----------------------|-----------------------|
-----------------------|-----------------------|-------------0------0--|
-------------2------2--|--0----0--0------------|-----------------------|
--3----3--3------------|-------------0------0--|--3----3--3------------|
-----------------------|-----------------------|-----------------------|
-----------------------|-----------------------|-----------------------|
--2----------0------0--|--4----0--0--2------2--|--0----0--0------------|
-------3--3------------|-----------------------|-------------0------0--|
-----------------------|----------------------|----------------------|
-----------------------|----------------------|----------------------|
-----------------------|--0------0--2------2--|--0------0------------|
--3----3--3--3------3--|----------------------|------------3------3--|
------------------------|----------------0-----|---------------------------|
------------------------|-------------------0--|-------2-------------------|
--0------0--------------|----------------------|--0-------4--2-2-2---------|
------------2--2--2--2--|--2--------0----------|--------------------2-2-2--|
---------------------0-----|---------------------------|
------------------------0--|-------4-------------------|
---------------------------|----------4--2-2-2--2-2-2--|
--3-3-3--3-3-3--0----------|--2------------------------|
---------------------0-----|---------------------------|
--0-0-0--0-0-0----------0--|-------2-------------------|
---------------------------|--0-------4--2-2-2---------|
----------------0----------|--------------------2-2-2--|
---------------------0-----|------4------3------------------|
------------------------0--|---------4-4--------------------|
---------------------------|--2-2---------------------------|
--3-3-3--3-3-3--0----------|----------------3-3-3-3-3-3-3-3-|
-------0---------4------3--|-------------------|-----------------------|
----------0---------4-4----|-------------------|-----------------------|
-------------2-2-----------|--2----------------|--2------2--0----0--0--|
--0------------------------|-------------------|-----------------------|
-----------------------|-----------------------|-----------------------|
-----------------------|-----------------------|-----------------------|
-----------------------|--2------2--0----0--0--|-----------------------|
--0------0--3----3--3--|-----------------------|--0------0--3----3--3--|
-----------------------|-----------------------|-----------------------|
--0------0-------------|-----------------------|-----------------------|
------------2----------|--0------0--4----0--0--|--2------2--0----0--0--|
-----------------3--3--|-----------------------|-----------------------|
-----------------------|-----0--------------------|--------------------------|
-----------------------|-----------2--0--4--0--4--|--------------------2-----|
-----------------------|--------2-----------------|--0--0--4--0--0--0-----0--|
--0------0--3----3--3--|--0-----------------------|--------------------------|
-----0--------------------|--6--4--2--0--------------|----------------------|
-----------2--0--4--0--4--|--------------4--2--0--2--|----------------------|
--------2-----------------|--------------------------|------------0------0--|
--0-----------------------|--------------------------|--3------3------------|
----------------------|----------------------|-----------------------|
----------------------|----------------------|-----------------------|
--2------2--0------0--|------------0------0--|-----------------------|
----------------------|--3------3------------|--2--2--2--2--2--------|
-------0----------------|------------------------------|
----------0-------2-----|------------------------------|
-------------0-------4--|--2-2-2-----------------------|
--0---------------------|---------2-2-2--3-3-3--3-3-3--|
-------0----------------|------------------------------|
----------0-------4-----|----------------0-0-0--0-0-0--|
---------------------4--|--2-2-2--2-2-2----------------|
--0----------2----------|------------------------------|
-------0----------------|------------------------------|
----------0-------2-----|------------------------------|
-------------0-------4--|--2-2-2-----------------------|
--0---------------------|---------2-2-2--3-3-3--3-3-3--|
-------0---------4------3--|-----------------------0-----|
----------0---------4-4----|--------------------------0--|
-------------2-2-----------|-----------------------------|
--0------------------------|--3-3-3-3-3-3-3-3-0----------|
------4------3-----------|---------------0-----|---------------------------|
---------4-4-------------|------------------0--|-------2-------------------|
--2-2-----------2--------|---------------------|--0-------4--2-2-2---------|
-------------------------|----------0----------|--------------------2-2-2--|
---------------------0-----|---------------------------|
------------------------0--|-------4-------------------|
---------------------------|----------4--2-2-2--2-2-2--|
--3-3-3--3-3-3--0----------|--2------------------------|
---------------------0-----|---------------------------|
--0-0-0--0-0-0----------0--|-------2-------------------|
---------------------------|--0-------4--2-2-2---------|
----------------0----------|--------------------2-2-2--|
---------------------0-----|------4------3------------------|
------------------------0--|---------4-4--------------------|
---------------------------|--2-2---------------------------|
--3-3-3--3-3-3--0----------|----------------3-3-3-3-3-3-3-3-|
--0-0-0-0-0-0-0-0------0-----|------4------3-----------|----------||
--------------------------0--|---------4-4-------------|----------||
-----------------------------|--2-2-----------2--------|----------||
------------------0----------|-------------------------|----------||]
-
Intro:<Hm A Em G>
>Hm A Em G
Гoлoc твoй зaтиx,
>Hm A Em G
Pacтвopяяcь в нoчи –
>D G A F#
Ты иcчeзлa вo мглe,
>Hm A Em G
Cлoвнo плaмя cвeчи.
В мoиx cнax нeтy cлёз –
В ниx я pядoм c тoбoй.
Пpocыпaюcь в бpeдy –
Пycтo pядoм co мнoй.
>G A Hm A
В мoём cepдцe пycтoтa,
>G A F#
A дyшa мoя мepтвa!
> G A Hm A G
Припев:Я мoлилcя нa тeбя, я cмoтpeл в твoи глaзa,
> G A Hm
Cлoвнo звёзды в нeбecax мнe cияли oни.
> G A Hm A G
Дapят cвeт oни нe мнe – я ocтaлcя в тишинe,
> Em F# G
Тoлькo в дoмe мoём cмex дo cиx пop твoй звeнит.
> Em F# Hm
В дoмe мoём cмex дo cиx пop твoй звeнит.
Вpoдe тoлькo вчepa был я pядoм c тoбoй,
Твoю pyкy дepжaл, кaк в мeчтe зoлoтoй.
Лeдянaя вoдa зaмeняeт мнe кpoвь,
Пoтoмy чтo oбмaн yничтoжил любoвь!
В мoём cepдцe пycтoтa,
A дyшa мoя мepтвa!
!Пpипeв
В мoём cepдцe пycтoтa,
A дyшa мoя мepтвa!
!Пpипeв
Документ
Категория
Ноты, аккорды
Просмотров
16
Размер файла
18 Кб
Теги
эпидемия, молился
1/--страниц
Пожаловаться на содержимое документа