close

Вход

Забыли?

вход по аккаунту

?

Абреу З - Тикo-Тикo

код для вставкиСкачать
“икo-“икo
!Acoustic Guitar
[E||--12-10--8-7--5--|--4--7--8--10--|--12--------|--12-----0---0-|
B||-----------------|---------------|------------|--9--------4---|
G||-----------------|-----0---------|------------|--9------------|
D||-----------------|---------------|------------|---------------|
A||-----------------|--------9--8---|------------|---------------|
E||-----------------|---------------|--12--------|--0------------|
--1-0--5---0---0-|--1-0--4---0---0-|--1-0-10-7---------|-----------5-4-3-|
-------5-----4---|-------5-----4---|--0--------9-------|-----------------|
-------5---------|-------7---------|--1----------9-7-6-|--5--------------|
-----------------|-----------------|-------------------|----7--7---------|
--0------3-------|---------2-------|-------------------|----7--7---------|
-----------------|--0--------------|--0----------------|--5------8-------|
--1-5-10----10-8-------|-------8-0-5-8-7-6-|--7---------2-7-5-|
------------10---10----|----10-------------|----------4-------|
---------10---------10-|--9----------------|--------4---------|
--0--------------------|-------------------|------4-----------|
-----------------------|-------------------|------------------|
-----------------------|--0----------------|----7-------------|
--4-12--12---------|-------0---------|-------0---------|------------------|
--5-----9----------|-------1---------|-------3---------|--------0---------|
--------9----------|-------2---------|-------1---------|------7-----------|
-------------2-1-2-|--3-2------2-1-2-|--3-2------2-1-2-|--6-------6---0---|
-------------------|--0------3-------|---------2-------|--8-7-------7---4-|
--0--------0-------|-----------------|--0--------------|--0---------------|
-----------------|------------------|------------------|----------0-------|
-----------------|------3---3-1-0---|------------------|--0-----0---3-1-0-|
----2--2---2-1-0-|----2-----2-----2-|------5---5-5-4-3-|------1-----------|
----2--2---------|--3-----0---------|----7-----7-------|----2-------------|
--3------3-------|------------------|--7-----7-5-------|------------------|
-----------------|--1---------------|--0---------------|--0---------------|
--------5-0---0-|--1-0--5---0---0-|--1-0--4---0---0-|--1-0-10-7---------|
--------5---4---|-------5-----4---|-------5-----4---|--0--------9-------|
--------5-------|-------5---------|-------7---------|--1----------9-7-6-|
--7-------------|-----------------|-----------------|-------------------|
--0-----0-------|--0------3-------|-----------------|-------------------|
-----0----------|-----------------|--0------7-------|--0----------------|
-----------5-4-3-|--1-5-10----10-8-------|-------8-0-5-8-7-6-|
-----------------|------------10---10----|----10-------------|
--5--------------|---------10---------10-|--9----------------|
----7--7---------|--0--------------------|-------------------|
----7--7---------|-----------------------|-------------------|
--5------8-------|-----------------------|--0----------------|
--7---------2-7-5-|--4-12--12---------|-------0---------|-----------------|
----------4-------|--5-----9----------|-------1---------|-------5---------|
--------4---------|--------9----------|-------2---------|-------7---------|
------4-----------|-------------2-1-2-|--3-2------2-1-2-|-------6---2-1-2-|
------------------|-------------------|--0------3-------|--8-7----2-------|
----7-------------|--0--------0-------|-----------------|--0--------------|
------------------|-----------------|------------------|------------------|
--------0---------|-----------------|------3---3-1-0---|------1---1-1-0---|
------7-----------|----2--2---2-1-0-|----2-----2-----2-|----2-----2-----3-|
--6-------6---0---|----2--2---------|--3-----0---------|--2-----2-0-------|
--8-7-------7---4-|--3------3-------|------------------|------------------|
--0---------------|-----------------|--1---------------|--0---------------|
----------0-------|--------5-----0-|--5-----4-------2-|--2-----0-------0-|
--0-----0---3-1-0-|--------5---2---|------2-------2---|------2-------2---|
------1-----------|--2-----5-2-----|----2-------2-----|----2-------2-----|
----2-------------|----------------|------------------|------------------|
------------------|--0-----0-------|--0---------------|--0---------------|
--0---------------|-----0----------|----------0-------|----------0-------|
--2-----0-------0-|--2-----0-----0-2-|--5-----4-----0-2-|
------2-------2---|----0-3-----3-----|----0-3-----3-----|
----2-------2-----|------------------|------------------|
------------------|------------------|------------------|
--0---------------|--2---------------|--2---------------|
----------0-------|----------0-------|----------0-------|
--2-----0-----0-2-|--5-----4-----0-2-|--2-----0-------0-|
----0-3-----3-----|----0-3-----3-----|------2-------2---|
------------------|------------------|----2-------2-----|
------------------|----------0-------|------------------|
--2---------------|--2---------------|--0---------------|
----------0-------|------------------|----------0-------|
--5-----4-------2-|--2-----0-------0-|--2-0-----2-0-----|---------------|
------2-------2---|------2-------2---|------2-------2---|--0---0-2-3----|
----2-------2-----|----2-------2-----|--------3-------3-|----3----------|
------------------|------------------|------------------|---------------|
--0---------------|--0---------------|----------4-------|--2-------2----|
----------0-------|----------0-------|--2---------------|---------------|
--------0-2-4-5-7-|--9-10-11-12-14-12-10-9-|--7-5-4-2-0-------|
--3-2-3-----------|------------------------|------------3-2-0-|
------------------|------------------------|------------------|
--0---------------|------------------------|------------------|
------------------|--0---------------------|------------------|
----------0-------|------------------------|--2---------------|
--------5-----0-|--5-----4-------2-|--2-----0-------0-|--2-----0-------0-|
--------5---2---|------2-------2---|------2-------2---|------2-------2---|
--2-----6-2-----|----2-------2-----|----2-------2-----|----2-------2-----|
-----2----------|------------------|------------------|------------------|
--0-----0-------|--0---------------|--0---------------|--0---------------|
----------------|----------0-------|----------0-------|----------0-------|
--2-----0-----0-2-|--5-----4-----0-2-|--2-----0-----0-2-|
----0-3-----3-----|----0-3-----3-----|----0-3-----3-----|
------------------|------------------|------------------|
------------------|------------------|------------------|
--2---------------|--2---------------|--2---------------|
----------0-------|----------0-------|----------0-------|
--5-----4-----0-2-|--2-----0-------0-|--5-----4-------2-|
----0-3-----3-----|------2-------2---|------2-------2---|
------------------|----2-------2-----|----2-------2-----|
----------0-------|------------------|------------------|
--2---------------|--0---------------|--0---------------|
------------------|----------0-------|----------0-------|
--2-----0-------0-|--2-0-----2-0-----|---------------|--------0-2-4-5-7-|
------2-------2---|------2-------2---|--0---0-2-3----|--3-2-3-----------|
----2-------2-----|--------3-------3-|----3----------|------------------|
------------------|------------------|---------------|--0---------------|
--0---------------|----------4-------|--2-------2----|------------------|
----------0-------|--2---------------|---------------|----------0-------|
--9-10-11-12-14-12-10-9-|--7-5-4-2-0-------|--------5-0---0-|
------------------------|------------3-2-0-|--------5---4---|
------------------------|------------------|--2-----6-------|
------------------------|------------------|-----2----------|
--0---------------------|------------------|--0-----0-------|
------------------------|--2---------------|----------------|
--1-0--5---0---0-|--1-0--5---0---0-|--1-0-10-7---------|-----------5-4-3-|
-------5-----4---|-------4-----4---|--0--------9-------|-----------------|
-------5---------|-------7---------|--1----------9-7-6-|--5--------------|
-----------------|-----------------|-------------------|----7--7---------|
--0------3-------|---------2-------|-------------------|----7--7---------|
-----------------|--0--------------|--0----------------|--5------8-------|
--1-5-10----10-8-------|-------8-0-5-8-7-6-|--7---------2-7-5-|
------------10---10----|----10-------------|----------4-------|
---------10---------10-|--9----------------|--------4---------|
--0--------------------|-------------------|------4-----------|
-----------------------|-------------------|------------------|
-----------------------|--0----------------|----7-------------|
--4-12--12---------|-------0---------|-----------------|------------------|
--5-----9----------|-------1---------|-------5---------|--------0---------|
--------9----------|-------2---------|-------7---------|------7-----------|
-------------2-1-2-|--3-2------2-1-2-|-------6---2-1-2-|--6-------6---0---|
-------------------|--0------3-------|--8-7----2-------|--8-7-------7---4-|
--0--------0-------|-----------------|--0--------------|--0---------------|
-----------------|------------------|------------------|----------0-------|
-----------------|------3---3-1-0---|------1---1-1-0---|--0-----0---3-1-0-|
----2--2---2-1-0-|----2-----2-----2-|----2-----2-----3-|------1-----------|
----2--2---------|--3-----0---------|--2-----2-0-------|----2-------------|
--3------3-------|------------------|------------------|------------------|
-----------------|--1---------------|--0---------------|--0---------------|
--------5-------|------------0-3-4-|--5--1----------|--------------1-3-|
--------5-0-----|----------1-------|-----0----0-----|----------0-3-----|
--2-----5---2-1-|--0-----0---------|-----0------2-1-|--0-----0---------|
----------------|------2-----------|--0-------------|------3-----------|
--0-----0-------|----3-------------|----------------|----2-------------|
-----0----------|------------------|--------3-------|------------------|
--5--0----8-8-8-|--8--7-7-7-7-5-5-5-|--5-------7-7-7-|--7-5-5-5-5-3-3-3-|
----------------|--8--------5-------|-----6----------|------------------|
-----5----------|--9--------5-------|-----4----------|------------------|
----------------|--10---------------|-----5----------|--0-------3-------|
--3-------------|-------------------|--5-------------|------------------|
--------0-------|-----------8-------|--------3-------|------------------|
--5-3-0-----------|------------0-3-4-|--5--1----------|--------------1-3-|
--------1---------|----------1-------|-----0----0-----|----------0-3-----|
----------0-------|--------0---------|-----0------2-1-|--0-----0---------|
--2---------2-----|------2-----------|--0-------------|------3-----------|
--------------3-0-|----3-------------|----------------|----2-------------|
------------------|--3---------------|--------3-------|------------------|
--5--0----------|------------------|--0-----0-3-2-1-0-|------------------|
----------1-0---|--------0-3-1-0-1-|------1-----------|--3-1-0-----------|
-----5--------3-|--2-1-2-----------|----0-------------|--------2-0-------|
----------------|------------------|------------------|--0---------3-2-0-|
--3-------------|------------------|------------------|------------------|
--------0-------|--1-------2-------|--3---------------|----------3-------|
----------------|------------0-3-4-|--5--1----------|--------------1-3-|
--------1-0-----|----------1-------|-----0----0-----|----------0-3-----|
--------0---2-1-|--0-----0---------|-----0------2-1-|--0-----0---------|
--------2-------|------2-----------|--0-------------|------3-----------|
--3-----3-------|----3-------------|----------------|----2-------------|
-----3----------|------------------|--------3-------|------------------|
--5--0----8-8-8-|--8--7-7-7-7-5-5-5-|--5-------7-7-7-|--7-5-5-5-5-3-3-3-|
----------------|--8--------5-------|-----6----------|------------------|
-----5----------|--9--------5-------|-----4----------|------------------|
----------------|--10---------------|-----5----------|--0-------3-------|
--3-------------|-------------------|--5-------------|------------------|
--------0-------|-----------8-------|--------3-------|------------------|
--5-3-0-----------|------------0-3-4-|--5--1----------|--------------1-3-|
--------1---------|----------1-------|-----0----0-----|----------0-3-----|
----------0-------|--------0---------|-----0------2-1-|--0-----0---------|
--2---------2-----|------2-----------|--0-------------|------3-----------|
--------------3-0-|----3-------------|----------------|----2-------------|
------------------|--3---------------|--------3-------|------------------|
--5--0----------|------------------|--0-----0-3-2-1-0-|------------------|
----------1-0---|--------0-3-1-0-1-|------1-----------|--3-1-0-----------|
-----5--------3-|--2-1-2-----------|----0-------------|--------2-0-------|
----------------|------------------|------------------|--0---------3-2-0-|
--3-------------|------------------|------------------|------------------|
--------0-------|--1-------2-------|--3---------------|----------3-------|
---------0---0-|--1-0--5---0---0-|--1-0--5---0---0-|--1-0-10-7---------|
-------3---4---|-------5-----4---|-------4-----4---|--0--------9-------|
-------1-------|-------5---------|-------7---------|--1----------9-7-6-|
-------2-------|-----------------|-----------------|-------------------|
--3----2-------|--0------3-------|---------2-------|-------------------|
---------------|-----------------|--0--------------|--0----------------|
-----------5-4-3-|--1-5-10----10-8-------|-------8-0-5-8-7-6-|
-----------------|------------10---10----|----10-------------|
--5--------------|---------10---------10-|--9----------------|
----7--7---------|--0--------------------|-------------------|
----7--7---------|-----------------------|-------------------|
--5------8-------|-----------------------|--0----------------|
--7---------2-7-5-|--4-12--12---------|-------0---------|-----------------|
----------4-------|--5-----9----------|-------1---------|-------5---------|
--------4---------|--------9----------|-------2---------|-------7---------|
------4-----------|-------------2-1-2-|--3-2------2-1-2-|-------6---2-1-2-|
------------------|-------------------|--0------3-------|--8-7----2-------|
----7-------------|--0--------0-------|-----------------|--0--------------|
------------------|-----------------|------------------|------------------|
--------0---------|-----------------|------3---3-1-0---|------1---1-1-0---|
------7-----------|----2--2---2-1-0-|----2-----2-----2-|----2-----2-----3-|
--6-------6---0---|----2--2---------|--3-----0---------|--2-----2-0-------|
--8-7-------7---4-|--3------3-------|------------------|------------------|
--0---------------|-----------------|--1---------------|--0---------------|
----------0-------|--------5----||
--0-----0---3-1-0-|--------5----||
------1-----------|--2-----5----||
----2-------------|-------------||
------------------|--0-----0----||
--0---------------|-----0-------||]
Документ
Категория
Ноты, аккорды
Просмотров
18
Размер файла
15 Кб
Теги
тикo, абреу
1/--страниц
Пожаловаться на содержимое документа