close

Вход

Забыли?

вход по аккаунту

?

Агата Кристи - Вольно

код для вставкиСкачать
Позорная звезда (1995), Heroin O (1996), 10 лет жизни (1998)
Вольно
I III IV
<Em D C H> [|-X-|---|---|---|]
[|---|---|---|-*-|]
<Em G5+ Em7 Em6#> [|---|---|---|---|] <G5+>
Счастье моё, почему ты грустишь? [|-*-|---|---|---|]
<Am C H Emsus2> [|---|-*-|---|---|]
Прячешь лицо и молчишь, и молчишь. [|---|---|---|---|]
Плётка твоя над кроватью висит,
Бей меня, бей, если хочешь убить. I III
<A C G> [|---|---|-*-|]
Вольно, можешь разорвать меня на части. [|---|---|---|] <Em7>
<D A> [|---|-*-|---|]
Я-то знаю, что такое счастье. [|---|-*-|---|]
<C G D> [|---|---|---|]
И мне уже почти-почти не больно. Вольно.
I III
<Em Hmsus4 Am Hmsus4> [|---|---|---|]
[|---|-*-|---|]
Ждал и молчал, я-то думал - ты спишь. [|---|---|---|] <Em6#>
Ты открыла глаза, почему ты молчишь? [|---|-*-|---|]
Не плачь, мой палач, лишь меня позови, [|---|-*-|---|]
Бей меня, бей, если хочешь любви. [|---|---|---|]
<A C G> I III
Вольно, самое крутое впереди [|---|-*-|---|]
До него осталось полпути [|---|---|---|] <Emsus2>
<C G C> [|---|-*-|---|]
И мне уже почти-почти не больно. Вольно. [|---|-*-|---|]
Вольно. Можешь разорвать меня на части. [|---|---|---|]
Я-то знаю, что такое счастье. III IV
И мне уже почти-почти не больно. Вольно. [|---|---|---|]
[|---|-*-|---|]
|: <Fm Hm D> :| |: <H D A E> :| - припев [|---|---|-*-|] <Hmsus4>
[|---|---|-*-|
|---|---|---|
|---|---|---|]
-
вступление:1)-7---------5-------------------7--------------
2)---8-5-5\7---5-----7-8-7-8-7-8---5------------ } играется 2 раза
3)---------------5------------------------------
4)-----------------5----------------------------
5)----------------------------------------------
6)----------------------------------------------
!проигрыш в середине куплета
1)-7--------------------------------------------
2)---8------------------------------------------
3)-----5-4--------------------------------------
4)----------------------------------------------
5)----------------------------------------------
6)----------------------------------------------
!еще такой проигрышь перед соло
1)----5---5\7------3----2-----5--5\7------3----2
2)--5---------5--3----3-----5--------5--3----3--
3)----------------------------------------------
4)----------------------------------------------
5)----------------------------------------------
6)----------------------------------------------
!сам соляк (за 100% правильности не отвечаю)
! 1\
1)--4-5-7-9-7-9--9-7-5-7-9-9-9-9----------------
2)-7-----------------------------7-8-7---------- дальше повторяется
3)---------------------------------------------- с 1 черты
4)----------------------------------------------
5)----------------------------------------------
6)----------------------------------------------
! и в конце повторяется раз 5
1)---7--7\9-------5----4------------------------
2)-7--------7---5----5--------------------------
3)----------------------------------------------
4)----------------------------------------------
5)----------------------------------------------
6)----------------------------------------------
Документ
Категория
Ноты, аккорды
Просмотров
14
Размер файла
4 Кб
Теги
кристи, вольно, агата
1/--страниц
Пожаловаться на содержимое документа