close

Вход

Забыли?

вход по аккаунту

?

Агата Кристи - Серое небо

код для вставкиСкачать
Ураган (1996)
Серое небо
[E||-------------------|-------------------|--1-----------------|
B||-------------------|-------------------|--------------------|
G||-------------------|-------------------|-------2------------|
D||--0----------------|--0----------------|--0-----------------|
A||-------------------|-------------------|--------------------|
E||-------------------|-------------------|--------------------|
-------------------|--1-----------------|-------------------|
-------------------|--------------------|-------------------|
-------------------|-------2------------|-------------------|
--0----------------|--0-----------------|--0----------------|
-------------------|--------------------|-------------------|
-------------------|--------------------|-------------------|
--1---------0---------|----------------------|--------------------|
----------------------|--3---------1---------|-------3------------|
-------2---------2----|-------2---------2----|--3-----------------|
--0-------------------|--0-------------------|--0-----------------|
----------------------|----------------------|--------------------|
----------------------|----------------------|--------------------|]
У - лe - тe - лa cкaз - кa вмec -тe c дeтcтвoм........
[-------------------|--0-------------------|----------------------|
-------------------|------------3---------|--2-------------------|
-------------------|-------0---------0----|-------0----3----0----|
--0----------------|--0-------------------|--0-------------------|
-------------------|----------------------|----------------------|
-------------------|----------------------|----------------------|]
Cпpя -тaв -шиcь зa чo - пop - нo - ю
[-------1------------|-------------------|--1---------0---------|
--------------------|-------------------|----------------------|
--2-----------------|-------------------|-------2---------2----|
--0-----------------|--0----------------|--0-------------------|
--------------------|-------------------|----------------------|
--------------------|-------------------|----------------------|]
шиp - мoй....... (и тaк дaлee)
[----------------------|--------------------|-------------------|
--3---------1---------|-------3------------|-------------------|
-------2---------2----|--3-----------------|-------------------|
--0-------------------|--0-----------------|--0----------------|
----------------------|--------------------|-------------------|
----------------------|--------------------|-------------------|
--0-------------------|----------------------|-------1------------|
------------3---------|--2-------------------|--------------------|
-------0---------0----|-------0----3----0----|--2-----------------|
--0-------------------|--0-------------------|--0-----------------|
----------------------|----------------------|--------------------|
----------------------|----------------------|--------------------|
-------------------|--1---------0---------|-----------------5----|
-------------------|----------------------|--3---------2---------|
-------------------|-------2---------2----|-------2--------------|
--0----------------|--0-------------------|----------------------|
-------------------|------------3---------|--1---------0---------|
-------------------|----------------------|----------------------|
--0---------1---------|--0-------------------|-------5----0---------|
-------2--------------|------------3---------|--2--------------2----|
-----------------2----|-------2---------2----|----------------------|
----------------------|----------------------|----------------------|
----------------------|------------1---------|--0-------------------|
------------1---------|--0-------------------|----------------------|
----------------------|----------------------|----------------------|
--2---------3---------|--2---------3---------|--2---------3---------|
-------2---------2----|-------2---------2----|--0----3----0----3----|
--3----0----3----0----|--3----0----3----0----|-------0---------0----|
----------------------|----------------------|----------------------|
----------------------|----------------------|----------------------|
----------------------|--0-------------------|----------------------|
--2---------3---------|------------3---------|--2--------------2----|
--0----3----0----3----|-------2---------2----|-------2----3---------|
-------0---------0----|--2-------------------|----------------------|
----------------------|----------------------|----------------------|
----------------------|----------------------|----------------------|
----------------------|----------------------|----------------------|
--2---------3---------|--2---------3---------|--2---------3---------|
-------2---------2----|-------2---------2----|--0----3----0----3----|
--3----0----3----0----|--3----0----3----0----|-------0---------0----|
----------------------|----------------------|----------------------|
----------------------|----------------------|--3-------------------|
----------------------|--0-------------------|----------------------|
--2---------3---------|------------3---------|--2-------------------|
--0----3----0----3----|--2-------------------|------------3---------|
-------0---------0----|-------2---------2----|-------2---------2----|
----------------------|--0-------------------|----------------------|
----------------------|----------------------|----------------------|
------------0---------|----------------------|----------------------|
----------------------|--3---------2---------|----------------------|
--2---------2---------|----------------------|--3---------2---------|
-------2---------2----|-------2---------2----|-------2---------2----|
------------0---------|----------------------|----------------------|
----------------------|----------------------|----------------------|
--1---------0---------|----------------------|--0-------------------|
----------------------|--3--------------3----|------------3---------|
-------2---------2----|-------0----3---------|-------2---------2----|
--0---------0---------|--0-------------------|--2-------------------|
----------------------|----------------------|----------------------|
----------------------|----------------------|----------------------|
----------------------|--1---------0---------|----------------------|
--2-------------------|----------------------|--3--------------3----|
-------2----3----2----|-------2---------2----|-------0----3---------|
----------------------|--0---------0---------|--0-------------------|
----------------------|----------------------|----------------------|
----------------------|----------------------|----------------------|
--0-------------------|----------------------|--1---------0---------|
------------3---------|--2-------------------|----------------------|
-------2---------2----|-------2----3----2----|-------2---------2----|
--2-------------------|----------------------|--0---------0---------|
----------------------|----------------------|----------------------|
----------------------|----------------------|----------------------|
----------------------|--0-------------------|----------------------|
--3--------------3----|------------3---------|--2-------------------|
-------0----3---------|-------2---------2----|-------2----3----2----|
--0-------------------|--2-------------------|----------------------|
----------------------|----------------------|----------------------|
----------------------|----------------------|----------------------|
---------------------|---------------------|-------0--------------|
-------3--------3----|-------3--------3----|----------------------|
--0----3--------3----|-------2--------2----|------------0----2----|
-------5-------------|--3----3-------------|--2-------------------|
---------------------|---------------------|----------------------|
---------------------|---------------------|----------------------|
----------------------|---------------------|---------------------|
-------3---------2----|-------3--------3----|-------3--------3----|
--3----3----2----2----|--0----3--------3----|-------2--------2----|
----------------------|-------5-------------|--3----3-------------|
----------------------|---------------------|---------------------|
----------------------|---------------------|---------------------|
--------------------|--1---------0---------|----------------------|
-----------2--------|----------------------|--3--------------3----|
--3--------2--------|-------2---------2----|-------0----3---------|
--5--------2--------|--0---------0---------|--0-------------------|
--5-----------------|----------------------|----------------------|
--------------------|----------------------|----------------------|
--0-------------------|----------------------|--1---------0---------|
------------3---------|--2-------------------|----------------------|
-------2---------2----|-------2----3----2----|-------2---------2----|
--2-------------------|----------------------|--0---------0---------|
----------------------|----------------------|----------------------|
----------------------|----------------------|----------------------|
----------------------|--0-------------------|----------------------|
--3--------------3----|------------3---------|--2-------------------|
-------0----3---------|-------2---------2----|-------2----3----2----|
--0-------------------|--2-------------------|----------------------|
----------------------|----------------------|----------------------|
----------------------|----------------------|----------------------|
---------------------|---------------------|-------0--------------|
-------3--------3----|-------3--------3----|----------------------|
--0----3--------3----|-------2--------2----|------------0----2----|
-------5-------------|--3----3-------------|--2-------------------|
---------------------|---------------------|----------------------|
---------------------|---------------------|----------------------|
----------------------|---------------------|---------------------|
-------3---------2----|-------3--------3----|-------3--------3----|
--3----3----2----2----|--0----3--------3----|-------2--------2----|
----------------------|-------5-------------|--3----3-------------|
----------------------|---------------------|---------------------|
----------------------|---------------------|---------------------|
--------------------|--1------------------|--------------------|
-----------2--------|---------------------|--------------------|
--3--------2--------|-------2-------------|--------------------|
--5--------2--------|------------0--------|--0--------0--------|
--5-----------------|---------------------|--------------------|
--------------------|---------------------|--------------------|
--1------------------|--------------------|--1---------0---------|
---------------------|--------------------|----------------------|
-------2-------------|--------------------|-------2---------2----|
------------0--------|--0--------0--------|--0-------------------|
---------------------|--------------------|------------3---------|
---------------------|--------------------|----------------------|
-----------------5----|--0---------1---------|--0-------------------|
--3---------2---------|-------2--------------|------------3---------|
-------2--------------|-----------------2----|-------2---------2----|
----------------------|----------------------|----------------------|
--1---------0---------|----------------------|------------1---------|
----------------------|------------1---------|--0-------------------|
-------5----0---------|----------------------|----------------------|
--2--------------2----|--2---------3---------|--2---------3---------|
----------------------|-------2---------2----|-------2---------2----|
----------------------|--3----0----3----0----|--3----0----3----0----|
--0-------------------|----------------------|----------------------|
----------------------|----------------------|----------------------|
----------------------|----------------------|--0-------------------|
--2---------3---------|--2---------3---------|------------3---------|
--0----3----0----3----|--0----3----0----3----|--2-------------------|
-------0---------0----|-------0---------0----|-------2---------2----|
----------------------|----------------------|--0-------------------|
----------------------|----------------------|----------------------|
----------------------|------------5---------|--3---------1---------|
--2-------------------|----------------------|----------------------|
------------3---------|--2--------------2----|-------2---------2----|
-------2---------2----|-------2----2----2----|----------------------|
----------------------|------------0---------|----------------------|
----------------------|----------------------|----------------------|
--0-------------------|--3---------1---------|--0-------------------|
------------3---------|----------------------|------------3---------|
-------2---------2----|-------2---------2----|-------2---------2----|
----------------------|-------2--------------|----------------------|
----------------------|--0-------------------|----------------------|
----------------------|--0-------------------|----------------------|
-------------------|----------------------|----------------------|
--2----------------|--2---------3---------|--2---------3---------|
-------------------|-------2---------2----|-------2---------2----|
-------------------|--3----0----3----0----|--3----0----3----0----|
-------------------|----------------------|----------------------|
-------------------|----------------------|----------------------|
----------------------|----------------------|--0-------------------|
--2---------3---------|--2---------3---------|------------3---------|
--0----3----0----3----|--0----3----0----3----|--2-------------------|
-------0---------0----|-------0---------0----|-------2---------2----|
----------------------|----------------------|--0-------------------|
----------------------|----------------------|----------------------|
----------------------|----------------------|----------------------|
--2--------------2----|--2---------3---------|--2---------3---------|
------------3---------|-------2---------2----|-------2---------2----|
-------2--------------|--3----0----3----0----|--3----0----3----0----|
----------------------|----------------------|----------------------|
----------------------|----------------------|----------------------|
----------------------|----------------------|--0-------------------|
--2---------3---------|--2---------3---------|------------3---------|
--0----3----0----3----|--0----3----0----3----|--2-------------------|
-------0---------0----|-------0---------0----|-------2---------2----|
----------------------|----------------------|----------------------|
----------------------|----------------------|----------------------|
----------------------|----------------------|----------------------|
--2--------------2----|--2---------3---------|--2---------3---------|
------------3---------|-------2---------2----|-------2---------2----|
-------2--------------|--3----0----3----0----|--3----0----3----0----|
----------------------|----------------------|----------------------|
----------------------|----------------------|----------------------|
----------------------|----------------------|--------------------|
--2---------3---------|--2---------3---------|--2-----------------|
--0----3----0----3----|--0----3----0----3----|-----------3--------|
-------0---------0----|-------0---------0----|--------------------|
----------------------|----------------------|--------------------|
----------------------|----------------------|--------------------|
--------------------|--------------------------|--------------------------|
--------------------|--------------0-----------|--------------0-----------|
--0-----------------|-----------0-----0--------|-----------0-----0--------|
-----------2--------|--------2-----------2-----|--------2-----------2-----|
--------------------|--0--3-----------------3--|--0--3-----------------3--|
--------------------|--------------------------|--------------------------|
-----------------------3--|-----3--7----3----7----|--3-----10-----------|
-----------0--3--0--3-----|--3--------------------|---------------------|
--------0-----------------|-----------------------|---------------------|
-----2--------------------|-----------------------|---------------------|
--0-----------------------|-----------------------|---------------------|
--------------------------|-----------------------|---------------------|
-------------------|------------------||
-----8-------------|------------------||
-------------------|------------------||
-------------------|------------------||
-------------------|------------------||
-------------------|------------------||]
-
Текст:Улетела сказка вместе с детством,
Спрятавшись за чопорной ширмой.
Фея поспешила одеться.
Я стряхиваю пепел в это небо.
Нет, теперь не то время,
Нет, теперь не то небо,
Когда можно было просто улыбаться,
Серым оно будет потом.
Если сделать все, что надо и не вспоминать,
Если спрятаться в подушку и не вспоминать,
Если видеть небо серым и не вспоминать,
Что небо, небо было голубым,
Небо, небо было голу...
Только это не поможет тем, кто любит рисовать.
Любит, любит рисовать.
Любит, любит рисовать.
Нет, теперь не то время,
Нет, теперь не то небо,
Когда можно было просто улыбаться,
А надо и кого-то любить, и надо жить после того
И снова, снова убивать.
Ведь это раньше можно было просто улыбаться,
Серым оно будет.
Раньше можно было просто улыбаться,
Серым оно будет.
Раньше можно было просто улыбаться,
Серым оно будет потом.
Документ
Категория
Ноты, аккорды
Просмотров
8
Размер файла
18 Кб
Теги
небо, кристи, серой, агата
1/--страниц
Пожаловаться на содержимое документа