close

Вход

Забыли?

вход по аккаунту

?

Агата Кристи - Сказочная тайга

код для вставкиСкачать
Опиум (1994), 10 лет жизни (1998)
Сказочная тайга
Проигрыш:<Dm Gm A F Dm G A Dm> } 2 раза
> Dm E7
(1)Когда я на почте служил ямщиком,
> A Dm
Ко мне постучался косматый геолог
> B Dm
И глядя на карту на белой стене
>E7 A
Он усмехнулся мне.
>Dm E7
Он рассказал, как плачет тайга,
>Gm A
Без мужика она одинока.
>Dm E7
Нету на почте у них ямщика,
> Gm
Значит нам туда дорога,
> A
Значит нам туда дорога.
>Dm Gm
Припев:Облака в небо спрятались,
> A F
Звёзды пьяные смотрят вниз
> Dm G
И в дебри сказочной тайги
> A
Падают они.
!Проигрыш
(2)Чёрные сказки белой зимы
На ночь поют нам большие деревья
Чёрные сказки про розовый снег
Розовый снег даже во сне
А ночью по лесу идет Сатана
И собирает свежие души
Новую кровь получила зима
И тебя она получит
И тебя она получит
!Припев - |<Em>|<Am>|<H>|<G>|<Em>|<A>|<H>|<Em>|
Проигрыш:|<Em>|<Am>|<H>|<G>|<Em>|<A>|<H>|<Em>| } 2 раза
-
>Dm E
Когда я на почте служил ямщиком,
> A7 Dm
Ко мне постучался косматый геолог.
> B Dm
И, глядя на карту на белой стене,
>E7 A7
Он усмехнулся мне.
>Dm E
Он рассказал мне, как плачет тайга,
>Gm A
Без мужика она одинока.
>Dm A7
Нету на почте у них ямщика,
>Gm6 A7
Значит, нам туда дорога, значит, нам туда дорога.
>Dm Gm
Облака в небо спрятались,
>A F
Звезды пьяные смотрят вниз.
> Dm G
И в дебри сказочной тайги
>A Dm
Падают они.
Черные сказки белой зимы
На ночь поют нам большие деревья.
Черные сказки про розовый снег,
Розовый снег даже во сне.
А ночью по лесу идет сатана
И подбирает свежие души.
Новую кровь получила зима
И тебя она получит, и тебя она получит.
Облака в небо спрятались,
Звезды пьяные смотрят вниз.
И в дебри сказочной тайги
Падают они.
>Em Am
Облака в небо спрятались,
>H G
Звезды пьяные смотрят вниз.
> Em A
И в дебри сказочной тайги
>H Em
Падают они.
> Em A
И в дебри сказочной тайги
>H Em
Падают они.
!Вступление и проигрыш:
> Dm Gm A F
1)-------------------|-------------------|-------------------|-------------------|
2)-------------------|-------------------|-------------------|-------------------|
3)---------------5---|-------------------|-------------------|-------------------|
4)-----------7-------|---8---------------|---7-----------8---|---7---------------|
5)---5---5-----------|-------------------|-------4---7-------|-------------------|
6)-------------------|-------------------|-------------------|-------------------|
> Dm G A Dm
1)-------------------|-------------------|-------------------|-------------------|
2)-------------------|-------------------|-------------------|-------------------|
3)---------------5---|---4---------------|---6---------------|---7---------------|
4)-----------7-------|-------------------|-------------------|-------------------|
5)---5---5-----------|-------------------|-------------------|-------------------|
6)-------------------|-------------------|-------------------|-------------------|
!Соло 1
> Em Am H G
1)-------------------|-------------------|-------------------|-------------------|
2)-------------------|-------------------|-------------------|-------------------|
3)-------------------|---2---------------|-------------------|-------------------|
4)--5--4--2--4--5----|-------5---2-------|--4--2-----2--4----|--5--4-------------|
5)-------------------|-------------------|--------6----------|--------5----------|
6)-------------------|-------------------|-------------------|-------------------|
> Em A H Am
1)-------------------|-------------------|-------------------|-------------------|
2)-------------------|-------------------|-----------4-------|--5----------------|
3)-------------------|--4--2-------------|--------4----------|-------------------|
4)-----2--4--5-------|--------2----------|--5--4-------------|-------------------|
5)--2----------------|-------------------|-------------------|-------------------|
6)-------------------|-------------------|-------------------|-------------------|
!Соло 2 играется так же, как соло 1, только на октаву выше (аккорды те же самые)
> Em Am H G
1)-------------------|--5----------------|-------------------|-------------------|
2)--8--7--5--7--8----|-----8--5----------|--7--5-----5--7----|--8--7-------------|
3)-------------------|-------------------|--------8----------|--------7----------|
4)-------------------|-------------------|-------------------|-------------------|
5)-------------------|-------------------|-------------------|-------------------|
6)-------------------|-------------------|-------------------|-------------------|
> Em A H Am
1)-------------------|-------------------|--------7--11------|--12---------------|
2)-----5--7--8-------|--7--5-------------|--8--7-------------|-------------------|
3)--4----------------|--------5----------|-------------------|-------------------|
4)-------------------|-------------------|-------------------|-------------------|
5)-------------------|-------------------|-------------------|-------------------|
6)-------------------|-------------------|-------------------|-------------------|
-
> Dm
(1)Когда я на почте служил ямщиком,
> Gm
Ко мне постучался косматый геолог
И глядя на карту на белой стене,
> A A7
Он улыбнулся мне!
> Dm
Он рассказал, как плачет тайга,
> Gm
Без мужика она одинока.
Нету на почте у них ямщика-
> A
Значит нам туда дорога,
> A7
Значит нам туда дорога!
> Dm G
Припев:Облока в небо спрятались,
> A F Звезды пьяные смотрят вниз
> Dm G
И в дебри сказочной тайги
> A Dm
Падают они
> Dm
(2)Черные сказки белой луны
> Gm
На ночь поют нам большие деревья
Черные сказки про розовый снег
> A A7
Розовый снег даже во сне
> Dm
А ночью по лесу идет сатана
> Gm
И собирает свежие души.
Новую кровь получила зима-
>A
И тебя оно получит
>A7
И оно тебя получит
!Припев
!Соло после припева:
[e---3-2-0--2-3-5-3-0--2-0---0-2-3-2--------0-2-3-7-5-0--3-2-7-5-0--
h-------------------------4---------3--3-0-------------------------]
-
>Dm Gm A F D G A Dm
> Dm E7
Когда я на почте служил ямщиком,
> A Dm
Ко мне постучался косматый геолог
> B Dm
И глядя на карту на белой стене
> E7 A
Он усмехнулся мне.
>Dm E7
Он рассказал, как плачет тайга,
> Gm A
Без мужика она одинока.
> Dm E7
Нету на почте у них ямщика,
> Gm A
Значит нам туда дорога, значит нам туда дорога.
>Dm Gm
Припев:Облака в небо спрятались,
> A F
Звёзды пьяные смотрят вниз
> Dm G
И в дебри сказочной тайги
> A
Падают они.
>Dm Gm A F Dm G A Dm
Чёрные сказки белой зимы
На ночь поют нам большие деревья,
Чёрные сказки про розовый снег,
Розовый снег, даже во сне.
А ночью по лесу идёт сатана
И собирает свежие души,
Новую кровь получила зима
И тебя она получит, и тебя она получит...
!Припев } 2 раза
И в дебри сказочной тайги
Падают они.
-
!Вместо слов пpипева:
![-3-2-0--2-3-5-3-0--2-0---0-2-3-2--------0-2-3-7-5-0--3-2-7-5-0(12)-] 1стp
![-----------------------4---------3--3-0----------------------------] 2стp
!Пpоигpыш посpедине куплета:
![-7-7--5-5--3-3--2-0-] 1стp
!Проигрыш на басу
4|---------|---------------|---------------|-----------------------|
5|---------|---------5-----|-----2-3---2-3-|-2-3-5-7---5-7-5-------|
6|-5-0-3-5-|-0-5-4-3---2-3-|-2-3-----3-----|---------7-------8-7-5-|
-
>Dm Gm A F D G A Dm
> Dm E7
Когда я на почте служил ямщиком,
> A Dm
Ко мне постучался косматый геолог
> B Dm
И глядя на карту на белой стене
> E7 A
Он усмехнулся мне.
>Dm E7
Он рассказал, как плачет тайга,
> Gm A
Без мужика она одинока.
> Dm E7
Нету на почте у них ямщика,
> Gm
Значит нам туда дорога,
> A
Значит нам туда дорога.
>Dm Gm
Облака в небо спрятались,
> A F
Звёзды пьяные смотрят вниз
> Dm G
И в дебри сказочной тайги
> A
Падают они.
|: <Dm Gm A F Dm G A Dm> :|
Чёрные сказки белой зимы
На ночь поют нам большие деревья
Чёрные сказки про розовый снег
Розовый снег даже во сне
А ночью по лесу идет Сатана
И собирает свежие души
Новую кровь получила зима
И тебя она получит
И тебя она получит
!|: <Em Am H G Em A H> :| - припев
Документ
Категория
Ноты, аккорды
Просмотров
31
Размер файла
10 Кб
Теги
кристи, сказочная, тайга, агата
1/--страниц
Пожаловаться на содержимое документа