close

Вход

Забыли?

вход по аккаунту

?

Агата Кристи - Сны

код для вставкиСкачать
Чудеса (1998)
Сны
!Тaбyлaтypa
Xa-xa-xa xa-xa-xa xa-xa-xa
[E |------0------0---|--0-0---0--0---0-|------1------1---|--0-0---0--0---0-|
B |--6-6---6--6---6-|------3------3---|--3-3---3--3---3-|------3------3---|
G |-----------------|-----------------|-----------------|-----------------|
D |-----------------|-----------------|-----------------|-----------------|
A |-----------------|-----------------|-----------------|-----------------|
E |-----------------|-----------------|-----------------|-----------------|]
!Кyплeт
!Пpипeв
A я ocтaвляю тeбe пpaвo нa cтpaшныe cны,пpaвo гopeть oт вecны и к нeбy идти
пo зoлe.
[E |------0------0---|--0-0---0--0---0-|------1------1---|--0-0---0--0---0-|
B |--6-6---6--6---6-|------3------3---|--3-3---3--3---3-|------3------3---|
G |-----------------|-----------------|-----------------|-----------------|
D |-----------------|-----------------|-----------------|-----------------|
A |-----------------|-----------------|-----------------|-----------------|
E |-----------------|-----------------|-----------------|-----------------|]
Ecли ты cмoжeшь-вoзьми,ecли бoишьcя-yбeй вcё чтo я взял oт любви,пpaвo нa тo
чтo бoльнeй
[E |------0------0---|--0-0---0--0---0-|------1------1---|--0-0---0--0---0-|
B |--6-6---6--6---6-|------3------3---|--3-3---3--3---3-|------3------3---|
G |-----------------|-----------------|-----------------|-----------------|
D |-----------------|-----------------|-----------------|-----------------|
A |-----------------|-----------------|-----------------|-----------------|
E |-----------------|-----------------|-----------------|-----------------|]
Xa-xa-xa xa-xa-xa xa-xa-xa
[E |------0------0---|--0-0---0--0---0-|------1------1---|--0-0---0--0---0-|
B |--6-6---6--6---6-|------3------3---|--3-3---3--3---3-|------3------3---|
G |-----------------|-----------------|-----------------|-----------------|
D |-----------------|-----------------|-----------------|-----------------|
A |-----------------|-----------------|-----------------|-----------------|
E |-----------------|-----------------|-----------------|-----------------|]
-
Текст:Тихим-тихим шагом в замедленном кино
К нам приходит время в темное окно.
Царственно садится задницей на трон,
Пусть тебе приснится самый светлый сон.
Но я оставляю себе право на страшные сны,
Право гореть от весны, к небу идти по золе.
Если ты сможешь - возьми, если боишься - убей.
Все, что я взял от любви - право на то, что больней.
Время включит звезды, укроет нас плащом,
И в глаза целует мертвым языком.
И на мягких лапах ножкой????
Навевая запах самых сладких снов.
Но я оставляю себе право на страшные сны,
Право гореть от весны, к небу идти по золе.
Если ты сможешь - возьми, если боишься - убей.
Все, что я взял от любви - право на то, что больней.
Но я оставляю себе право на страшные сны,
Право гореть от весны, к небу идти по золе.
Если ты сможешь - возьми, если боишься - убей.
Все, что я взял от любви - право на то, что больней.
Если ты сможешь - возьми, если боишься - убей.
Все, что я взял от любви - право на то, что больней.
Документ
Категория
Ноты, аккорды
Просмотров
16
Размер файла
3 Кб
Теги
кристи, агата, сны
1/--страниц
Пожаловаться на содержимое документа