close

Вход

Забыли?

вход по аккаунту

?

Агата Кристи - Чёрная луна

код для вставкиСкачать
Опиум (1994), Heroin O (1996), 10 лет жизни (1998)
Чёрная луна
> Gm
(1)Задумывая чёрные дела
> D#
На небе ухмыляется луна.
> D Gm
А звёзды, будто мириады стрел.
Ловя на мушку силуэты снов,
Смеётся и злорадствует любовь
И мы с тобой попали на прицел.
>Gm
Припев:Я же своей рукою
Сердце твое прикрою -
>Cm D
Можешь лететь и не бояться больше ничего.
Сердце твое двулико,
Сверху оно набито
Мягкой травой, а снизу каменное, каменное дно.
(2)Смотри же и глазам своим не верь -
На небе затаился чёерный зверь -
В глазах его я чувствую беду.
Не знал и не узнаю никогда
Зачем ему нужна твоя душа -
Она гореть не сможет и в аду.
!Припев
-
> Gm
Задумывая чёрные дела
> D#
На небе ухмыляется луна.
> D Gm
А звёзды, будто мириады стрел.
> Gm
Ловя на мушку силуэты снов,
> D#
Смеётся и злорадствует любовь
> D Gm
И мы с тобой попали на прицел.
>Gm
Я же своей рукою cердце твое прикрою -
> Cm D
Можешь лететь и не бояться больше ничего.
> Gm
Сердце твое двулико, сверху оно набито
> Cm D
Мягкой травой, а снизу каменное, каменное дно.
Смотри же и глазам своим не верь -
На небе затаился чёрный зверь -
В глазах его я чувствую беду.
Не знал и не узнаю никогда
Зачем ему нужна твоя душа -
Она гореть не сможет и в аду.
-
>Gm
Задумывая черные дела
> D#
На небе ухмыляется луна.
> D Gm
А звезды, будто мириады стрел.
Ловя на мушку силуэты снов,
> D#
Смеется и злорадствует любовь
> D Gm
И мы с тобой попали на прицел.
>Gm
Я же своей рукою
Сердце твое прикрою -
> Cm D
Можешь лететь и не бояться больше ничего.
> Gm
Сердце твое двулико,
Сверху оно набито
> Cm D
Мягкой травой, а снизу каменное, каменное дно.
Смотри же и глазам своим не верь -
На небе затаился черный зверь -
В глазах его я чувствую беду.
Не знал и не узнаю никогда
Зачем ему нужна твоя душа -
Она гореть не сможет и в аду.
-
Intro:Play 3 Times
!Let ring
[e||-----2-3-----2-3-|-----2-3-----2-3-|-----2-3-----2-3-|-----2-3-----2-3-||
B||---3-------3-----|---3-------3-----|---4-------4-----|---4-------4-----||
G||-0---------------|-0---------------|-0---------------|-0---------------||
D||-----------------|-----------------|-----------------|-----------------||
A||-----------------|-----------------|-----------------|-----------------||
E||-----------------|-----------------|-----------------|-----------------||]
!End of intro, play once
!Let ring
[e||-----2-3-----2-3-|-----2-3-----2-3-|-----2-3-----2-3-|-7-7-5-5-3-3-1---||
B||---3-------3-----|---3-------3-----|---4-------4-----|-8-8-7-7-5-5-3---||
G||-0---------------|-0---------------|-0---------------|-----------------||
D||-----------------|-----------------|-----------------|-----------------||
A||-----------------|-----------------|-----------------|-----------------||
E||-----------------|-----------------|-----------------|-----------------||]
Verse:<Gm Eb D Gm>
Chorus:<Gm Gm Cm D>
!Fill In's
!Let ring
[e|-----2-3---------| e|-----2-3---------| e|-7-7-5-5-3-3-1---|
B|---3-------------| B|---4-------------| B|-8-8-7-7-5-5-3---|
G|-0---------------| G|-0---------------| G|-----------------|
D|-----------------| D|-----------------| D|-----------------|
A|-----------------| A|-----------------| A|-----------------|
E|-----------------| E|-----------------| E|-----------------|]
!That's all
Документ
Категория
Ноты, аккорды
Просмотров
28
Размер файла
4 Кб
Теги
кристи, черная, агата, луна
1/--страниц
Пожаловаться на содержимое документа