close

Вход

Забыли?

вход по аккаунту

?

Адаптация - Анархия

код для вставкиСкачать
Анархия
[E-------------------------------------------------------|
B-------------------------------------------------------|
G---------------2--5--2---------------------------------|
D---5--5-----------------5--3--5--3--5------------------|
A---3--3--5--5------------------------------------------|
E---------3--3------------------------------------------|
E-------------------------------------------------------|
B-------------------------------------------------------|
G---------------2--5--2-----------5---------------------|
D---5--5-----------------5--3--5------------------------|
A---3--3--5--5------------------------------------------|
E---------3--3------------------------------------------|]
!все вместе } 2 раза
[E---------------3--5--8--5------------------------------|
B------------5--------------8--6--8--6--8---------------|
G---5--4--5---------------------------------------------|
D-------------------------------------------------------|
A-------------------------------------------------------|
E-------------------------------------------------------|
E---------------3--5--8--5-----------8------------------|
B------------5--------------8--6--8---------------------|
G---5--4--5---------------------------------------------|
D-------------------------------------------------------|
A-------------------------------------------------------|
E-------------------------------------------------------|]
!все вместе } 2 раза
Куплет 1:Юноше,обдумывающему житье,надо сразу сказать:"Любая власть-дерьмо"
[E-------------------------------------------------------|
B-------------------------------------------------------|
G-------------------------------------------------------|
D---5--5--------5--5--------5--5--------5--5------------|
A---3--3--5--5--3--3--3--3--3--3--5--5--3--3--3--3------|
E---------3--3--------1--1--------3--3--------1--1------|]
Любой закон - это тюрьма,а разговоры про свободу - это все ерунда
[E-------------------------------------------------------|
B-------------------------------------------------------|
G-------------------------------------------------------|
D---5--5--------5--5--------5--5--------5--5------------|
A---3--3--5--5--3--3--3--3--3--3--5--5--3--3--3--3------|
E---------3--3--------1--1--------3--3--------1--1------|]
Огнем и мечом наведут порядок,железный кулак установит покой
[E-------------------------------------------------------|
B-------------------------------------------------------|
G-------------------------------------------------------|
D---5--5--------5--5--------5--5--------5--5------------|
A---3--3--5--5--3--3--3--3--3--3--5--5--3--3--3--3------|
E---------3--3--------1--1--------3--3--------1--1------|]
Таких,как я,поставят к стенке,а мы умрем с криками:"Xoй!"
[E-------------------------------------------------------|
B-------------------------------------------------------|
G-------------------------------------------------------|
D---5--5--------5--5--------5--5--------5--5------------|
A---3--3--5--5--3--3--3--3--3--3--5--5--3--3--3--3------|
E---------3--3--------1--1--------3--3--------1--1------|]
Припeв: АНАРХИЯ!
[Е-------------------------------------------------------|
В-------------------------------------------------------|
G---------------2--5--2---------------------------------|
D---5--5-----------------5--3--5--3--5------------------|
A---3--3--5--5------------------------------------------|
E---------3--3------------------------------------------|]
АНАРХИЯ!
[E-------------------------------------------------------|
B-------------------------------------------------------|
G---------------2--5--2-----------5---------------------|
D---5--5-----------------5--3--5------------------------|
A---3--3--5--5------------------------------------------|
E---------3--3------------------------------------------|]
!Припев } 2 раза
Так отдайте бездомным дома,а калекам отдайте их части тела
[E-------------------------------------------------------|
B-------------------------------------------------------|
G-------------------------------------------------------|
D---5--5--------5--5--------5--5--------5--5------------|
A---3--3--5--5--3--3--3--3--3--3--5--5--3--3--3--3------|
E---------3--3--------1--1--------3--3--------1--1------|]
Пусть будет все как вода,как завещал нам хайрастый Ленин
[E-------------------------------------------------------|
B-------------------------------------------------------|
G-------------------------------------------------------|
D---5--5--------5--5--------5--5--------5--5------------|
A---3--3--5--5--3--3--3--3--3--3--5--5--3--3--3--3------|
E---------3--3--------1--1--------3--3--------1--1------|]
Землю крестьянам,заводы рабочим,народам мир и любовь,
[E-------------------------------------------------------|
B-------------------------------------------------------|
G-------------------------------------------------------|
D---5--5--------5--5--------5--5--------5--5------------|
A---3--3--5--5--3--3--3--3--3--3--5--5--3--3--3--3------|
E---------3--3--------1--1--------3--3--------1--1------|]
Но не отдайте черное знамя и надежду на русский авось!
[E-------------------------------------------------------|
B-------------------------------------------------------|
G-------------------------------------------------------|
D---5--5--------5--5--------5--5--------5--5------------|
A---3--3--5--5--3--3--3--3--3--3--5--5--3--3--3--3------|
E---------3--3--------1--1--------3--3--------1--1------|]
!Припев } 2 раза
Cоло:[E-------------------------------------------------------------------------| } 2 раза
B-------------------------------------------------------------------------|
G-------------------------------------------------------------------------|
D---10-10-10-10-10-10-10---5-5-5-5-5-5-5---7-7-7-7-7-7-7---3-3-3-3-3-3-3--|
A---10-10-10-10-10-10-10---5-5-5-5-5-5-5---7-7-7-7-7-7-7---3-3-3-3-3-3-3--|
E-------------------------------------------------------------------------|
E---------------------------------------------------------------------| } 2 раза
B---------------------------------------------------------------------|
G---5-4-5-4-5-4-5---7-6-7-6-7-6-7---9-8-9-8-9-8-9---10-9-10-9-10-9-10-|
D---5-4-5-4-5-4-5---7-6-7-6-7-6-7---9-8-9-8-9-8-9---10-9-10-9-10-9-10-|
A---------------------------------------------------------------------|
E---------------------------------------------------------------------|]
! Далее идет припев,а после него идет концовка:
[E----------------------------------------------------------------|
B----------------------------------------------------------------|
G---5--4--2--0--2--4--5--4--2--0--2--4--5--4--2--0--2--4--5...---|
D----------------------------------------------------------------|
A----------------------------------------------------------------|
E----------------------------------------------------------------|]
-
>C G Am F
Юноше обдумывающему житьё
Hадо сразу сказать
Любая власть дерьмо
Любой закон это тюрьма
А разговоры про свободу это всё ерунда
Огнём и мечом наведут порядок
Железный кулак установит покой
Таких как я поставят к стенке
Hо мы умрём с криками "хой!"
Анархия
Анархия
Анархия
Анархия
Так отдайте бездомным дома
А калекам отдайте их части тела
Пусть будет всё как вода
Как завещал нам хайрастый Ленин
Землю крестьянам заводы рабочим
Hародам мир и любовь
Hо не отдайте чёрное знамя
И надежду на русский авось
Пускай будет
Анархия
Анархия
Анархия
Анархия
Документ
Категория
Ноты, аккорды
Просмотров
5
Размер файла
8 Кб
Теги
адаптация, анархия
1/--страниц
Пожаловаться на содержимое документа