close

Вход

Забыли?

вход по аккаунту

?

Адаптация - Марихуана

код для вставкиСкачать
Марихуана
!H - Подтяжка...
!\ - слайд...
[||-----------------------|------------------------|-------------|
||-----------------------|------------------------|-------------|
||--2------5--2--0-------|---------------------0--|-------------|
||------------------3----|----2--0-------2--3-----|----3--2--0--|
||-----------------------|----------3-------------|-------------|
||-----------------------|------------------------|-------------|
-----------------------------------|------------------------|
-----------------------------------|------------------------|
-2------5----2--0------------------|----------0-------------|
-------------------3------2--0-----|----2--3-------3--2--0--|
--------------------------------3--|------------------------|
-----------------------------------|------------------------|
------------------------------|------------------------|
------------------------------|------------------------|
--2------5--2--0----0----0----|--2--5--2--5--7H9\7--5--|
------------------------------|------------------------|
------------------------------|------------------------|
------------------------------|------------------------|
-----------------------|-------------------------|----||
-----------------------|-------------------------|----||
--2------5--2--0-------|-------------5--7--5--4--|----||
------------------3----|--2--0-------------------|----||
-----------------------|--------3----------------|----||
-----------------------|-------------------------|----||]
>Am F C G
Потный асфальт да странные люди
>Am F C G
Всё хорошо да только вот страшно
>Am F C G
За целые дни в поисках судеб
>Am F C G
За целые дни в бегстве от страха
Но
>Am F C G
Ма - ри - ху - ана
Марихуана
Марихуана
Марихуана
Милосердие переменного тока
Адаптация перерезанных вен
Уставшим шеям хватит верёвок
Вольным ветрам всегда хватит стен
Марихуана
Марихуана
Марихуана
Марихуана
Но сколько сердец в ложных частотах
Поиск тепла сушняк наших душ
Танец любви - бросайте винтовки
Время играет нам траурной туш
Но
Марихуана
Марихуана
Марихуана
Марихуана
Документ
Категория
Ноты, аккорды
Просмотров
8
Размер файла
2 Кб
Теги
адаптация, марихуана
1/--страниц
Пожаловаться на содержимое документа