close

Вход

Забыли?

вход по аккаунту

?

Аквариум - Город

код для вставкиСкачать
Десять стрел (1986)
!Город
!(А. Волохонский, А. Хвостенко)
Куплет:[e|------------------------------------------------------------------|
b|------------------------------------------------------------------|
g|----------------4-2--------------5-4-2----------2--4/5-4--2--2----|
d|---5-4--2-1-2---------5-4-5---2---------5-4-5--------------5---4--|
a|-2------------2---------------------------------------------------|
E|------------------------------------------------------------------|]
Припев:[e|------------------------------------------
b|-3-3-----3-3-------5-------------------3--
g|-------------5-4-5----5-5----5-5-4-3-4----
d|-----2-6-------------------4--------------
a|--------------------------5---------------
E|------------------------------------------
-------5--3-2------------5-3-2-------------|
------5------5-5-4------5-----5-5-4-5------|
-2-4-5-------------2-4-5-------------------|
-------------------------------------------|
-------------------------------------------|
-------------------------------------------|]
Куплет:Под небом голубым есть город золотой
С прозрачными воротами и яркою звездой.
А в городе том сад, все травы да цветы,
Гуляют там животные невиданной красы.
Припев:Одно – как желтый огнегривый лев,
Другое – вол исполненных очей.
С ними золотой орел небесный,
Чей так светел взор незабываемый.
Куплет:А в небе голубом горит одна звезда.
Она твоя, о ангел мой, она твоя всегда.
Кто любит тот любим, кто светел – тот и свят.
Пускай ведет звезда тебя дорогой в дивный сад.
Припев:Тебя там встретит огнегривый лев
И синий вол исполненных очей.
С ними золотой орел небесный,
Чей так светел взор незабываемый.
-
Встyпление:1)-----1---0-------0h1-----5--3-1-0-1-1-3-5---6--5-3--1-0---1--1-3
2)-----------3-2-3-----3------------3-------3---------3---3----3--
3)-----2-----------------2-2------------------0-------------------
4)--0--0----------------------------------------------------------
5)----------------------------------------------------------------
6)----------------------------------------------------------------
1)-5----6-5-3-1-3-0---5-0--1-0-------0h1------5-3-1-0-1-1-3-5---6-
2)---3--------3-----2----------3-2-3-----3------------3-------3---
3)------0---------0------------------------2--2-----------------0-
4)-------------------------0--------------------------------------
5)----------------------------------------------------------------
6)----------------------------------------------------------------
1)--5-3-1-0---1--1-3-5---6-5-3-1-3--0---5-0-----------------------
2)------3---3----3-----3-------3------2---------------------------
3)-----------------------0----------2-----------------------------
4)----------------------------------------------------------------
5)----------------------------------------------------------------
6)----------------------------------------------------------------
Кyплет:1)-0--------------------------------------------------------------
2)----------------------------------------------------------------
3)----------------------2--0----------------3--2-0--------0--3-2-0
4)---3-2-0---0-2-3-0---------3-2-3-3-5-7--0---------3-2-3---------
5)-0-------4----------0-------------------------------------------
6)----------------------------------------------------------------
1)----------------------------------------------------------------
2)----------------------------------------------------------------
3)----0------------------------2--0----------------3--2-0-------0-
4)--3---2----3-2-0---0-2-3-0--------3-2-3-3-5-7--0--------3-2-3---
5)---------0-------4---------0------------------------------------
6)----------------------------------------------------------------
1)----------------------------------------------------------------
2)----------------------------------------------------------------
3)-3-2-0-3-2-0----------------------------------------------------
4)----------------------------------------------------------------
5)----------------------------------------------------------------
6)----------------------------------------------------------------
Пpипев:1)-------------------------------------------------------3-1-0-3-3
2)-1-1------1--1-------3----------------------1--------3----------
3)---------------3-2-3----3-3------3--3-2-1-2----0-2-3------------
4)------0-4----------------------2--------------------------------
5)-----------------------------3----------------------------------
6)----------------------------------------------------------------
1)-2----------3-1-0-----------------------------------------------
2)----------1-------3-3-2-3---------------------------------------
3)----0-2-3-------------------------------------------------------
4)----------------------------------------------------------------
5)----------------------------------------------------------------
6)----------------------------------------------------------------
Кyплет:Под небом голyбым,
Есть гоpод золотой.
С пpозpачными воpотами
И яpкою звездой.
А в гоpоде том сад,
всё тpавы да цветы,
Гyляют там животные,
Hевиданной кpасы.
Пpипев:Одно - как жёлтый огнегpивый лев,
Дpyгое - вол, исполненный очей,
С ними золотой оpёл небесный
Чей так светел взоp незабываемый
Кyплет:А в небе голyбом,
Гоpит одна звезда,
Она твоя, о ангел мой
Она твоя всегда.
Кто любит - тот любим
Кто светел - тот и свят
Пyскай звезда ведёт тебя
Доpогой в дивный сад.
Пpипев:Тебя там встpетит огнегpивый лев
И синий вол, исполненный очей
С ними золотой оpёл небесный
Чей так светел взоp незабываемый
-
> a c h a g# a h^c^a c e d c h c c^h^e
(1)Под небом голубым есть город золотой
> e f e d c h c d e^f e de d h g#^e
С прозрачными воротами и ясною звездой,
> Am E Am
А в городе том сад, все травы да цветы,
> Dm E7 Am
Гуляют там животные невиданной красы:
> A7 Dm
Припев:Одно, как желтый огнегривый лев,
> G C
Другое вол, исполненный очей,
> Dm F E
С ними золотой орел небесный,
> F E Am/ e c h a g# a
Чей так светел взор незабываемый.
(2)А в небе голубом горит одна звезда.
Она твоя, о ангел мой, она твоя всегда.
Кто любит, тот любим, кто светел, тот и свят,
Пускай ведет звезда тебя дорогой в дивный сад.
Тебя там встретит огнегривй лев,
И синий вол, исполненный очей,
С ними золотой орел небесный,
Чей так светел взор незабываемый.
>Am
[-------------------0-------------0---1-0-----------1-0-----------0--------
-1-0-------0-1-------3-1-0-1-1-3---------3-1-0-1-3-----3-1-3-0-----0------
-----2-1-2-----2-------------------2---------------------------1----------
-2---------------2-2-----------------0--------------------------------5-5-
0--------0-----0------------------------------------------------------4---
----------------------------------------------------------------------5---
--------------------------------------------3-1-0---------------3-1-0---------
--------------2-------------------0-------2-------2-2-1-------2-------2-2-1-2-
----5-5-3-2-3---3-3-----3-3-2-1-2---0-2-3---------------0-2-3-----------------
--4-------------2-----2-------------------------------------------------------
5---------------3---3---------------------------------------------------------]
-
>Am
(1)Под небом голубым
Есть гоpод золотой,
>Dm
С пpозpачными воpотами
> E
И яpкою звездой.
А в гоpоде том сад,
Все тpавы да цветы
Гуляют там животные
Hевиданной кpасы.
>A7 Dm
Припев:Одно - как желтый огнегpивый лев,
>G C
Дpугое - вол, исполненный очей,
>Dm E
С ними золотой оpел небесный,
>Dm E Am
Чей так светел взоp незабываемый.
>Am
(2)А в небе голубом
Гоpит одна звезда.
>Dm
Она с тобой, о ангел мой,
> E
Она твоя всегда.
Кто любит - тот любим,
Кто светел - тот и свят.
Пускай ведет звезда тебя
Доpогой в дивный сад.
>A7 Dm
Припев:Тебя там встpетит огнегpивый лев
> G C
И синий вол, исполненный очей,
> Dm E
С ними золотой оpел небесный,
> Dm E Am
Чей так светел взоp незабываемый.
-
[-------------------|---0------------0-|---1-0-----------|-1-0---------|
----1-0-------01---|-----3-1-0-1-13---|-------3-1-0-1-3-|-----3-1-3-0-|
-------2-1-2----2---------|-2-----------------|
-2-----------------|-2----------------|---0---------------|
----0---------0----|---0-------0--------------|
--------------------------------|---0-------0-|
-------------------|---0------------0-|---1-0-----------|-1-0---------|
----1-0-------01---|-----3-1-0-1-13---|-------3-1-0-1-3-|-----3-0-1---|
-------2-1-2----2---------|-2---------------2-|
-2-----------------|-2----------------|---0---------------|
----0---------0----|---0-------0------------0-|
--------------------------------|---0---------|
-5-5-----3-3-1-0-1-5-|-3-----1-1-0---0-3-|---0---5-10-8-7-5-5-4-|
-------2-------------|-----0-------4-----|-3---6----------------|
-----2---------------|---0--------------------------|
-----------0-------0---------|-0--------------------|
----4----------------|---------3--------------------|
---------------------|-3------------------------0---|
---0---5-10-8-7-5-5-4-|-5-
-3---6----------------|---
----------------------|---
-0--------------------|---
----------------------|-0-
------------------0---|---]
-
Fill 1:[-----------------|---0------------0-|
--1-0-------01---|-----3-1-0-1-13---|
------2-1-2----2--------|
2----------------|-2----------------|
--0-------0------|---0-------0------|
------------------------|
-|---1-0-----------|-1-0---------|
-|-------3-1-0-1-3-|-----3-1-3-0-|
-|-2-----------------|
-|---0---------------|
---------|
-------|---0-------0-|
------------------|---0------------0-|
---1-0-------01---|-----3-1-0-1-13---|
-------2-1-2----2--------|
-2----------------|-2----------------|
---0-------0------|---0-------0------|
-------------------------|
|---1-0-----------|-1-0---------|
|-------3-1-0-1-3-|-----3-0-1---|
|-2---------------2-|
|---0---------------|
------0-|
------|---0---------|]
!End of Fill 1
Fill 2:[-3-3-----3-3-1-0-1-5-|-1-1----1-1-0---0-3-|
-------2-----------6-|------0-------4---5-|
-----2-------------7-|----0-------------5-|
-----------0------------------|
---0-----------------|----------3---------|
---------------------|---0----------------|
|-0-------5-10-8-7-5-5-4-|
|-----5-6--------------3-|
|---7------------------4-|
|---0--------------------|
---------7---|
-------------|
|---------5-10-8-7-5-5-4-|-5
|-----5-6--------------3-|-5
|---7------------------4-|-5
|---0--------------------|--
---------7---|--
-------------|--]
> Am Am
(1)Под небом голубым есть город золотой.
> Dm E
С прозрачными воротами и яркою звездой.
> Am Am
А в городе том - сад, все травы, да цветы
> Dm E Am
Гуляют там животные невиданной красы.
> A7 Dm
Припев:Одно, как желтый огнегривый лев,
> G7 C
Другое - вол исполненный очей.
> Dm E
С ними золотой орел небесный
> Dm E Am
Чей так светел взор незабываемый.
(2)А в небе голубом горит одна звезда.
Она твоя, о, ангел мой, она твоя всегда.
Кто любит тот любим, кто светел тот и свят
Пускай ведет звезде тебя дорогой в дивный сад.
Припев:Тебя там встретит огнегривый лев
И синий вол, исполненный очей.
С ними золотой орел небесный
Чей так светел взор незабываемый.
-
Куплеты:[-----3--2--0-----0-----------7--5--3--2-
---0-------1--4--------0--0-------------
-----------------------0----------------
--------------4-----2--------5--4--2--1-
----------------------------------------
-----0-----------0----------------------
-3--------0--8--7--5--3--2--3--5--8--
-------0-----------------------------
-------0-----------------------------
----2--------7--5--4--2--1--2--4--7--
-------------------------------------
-0-----------------------------------
---7--5--3--5--2--------
---------------------4--
------------------2-----
---5--4--2--4-----------
---------------2--------
------------------------]
! ^баррэ на 2 ладу
Припев:[---7--7-----------------------5--5-
-----------------------------------
---------7--7--7--7--5--4--5-------
---------6--6--6-------------------
------------------0----------------
------0----------------------------
-5-----------------------------------0--
-------------1--0-----0--0--------1-----
----5--5--5--------2-----------2--------
----4--4--4-----------------4-----------
----------------------------------------
-0-----------3--------------------------
---5--3--2--0--0--------------0--5--3--2--0--0-----0--
------------------4--------1--------------------4-----
------------------2-----2-----------------------2--0--
---------------------4--------------------------------
---------------3--2--------------------------3--2-----
---------------------------------------------------0--]
! ^баррэ на 2ладу
(1)Под небом голубым есть город золотой
С прозрачными воротами и ясною звездой,
А в городе том сад, все травы да цветы,
Гуляют там животные невиданной красы:
Припев:Одно, как желтый огнегривый лев,
Другое вол, исполненный очей,
С ними золотой орел небесный,
Чей так светел взор незабываемый.
(2)А в небе голубом горит одна звезда.
Она твоя, о ангел мой, она твоя всегда.
Кто любит, тот любим, кто светел, тот и свят,
Пускай ведет звезда тебя дорогой в дивный сад.
Припев:Тебя там встретит огнегривй лев,
И синий вол, исполненный очей,
С ними золотой орел небесный,
Чей так светел взор незабываемый.
-
!Составлено по нотам
>Am Am
|---------------------|----0---------------0---|
|----1--0--------01---|----1--3-1-0--1--13-----|
|----2----2-1-2-----2-|----2---------2-------2-|
|-2--2----------------|-2------------2---------|
|----0--------0-------|----0---------0---------|
|---------------------|------------------------|
>Dm E
|-1---0------------01-|-0----------------------|
|-3-----3--1-01-3-----|----3-1-3---0-----------|
|-2----------2--------|------------1-----------|
|-0----------0--------|------------2-----------|
|---------------------|-0----------------------|
|---------------------|------------0-----------|
>Am Am
|---------------------|----0---------------0---|
|----1--0--------01---|----1--3-1-0--1--13-----|
|----2----2-1-2-----2-|----2---------2-------2-|
|-2--2----------------|-2------------2---------|
|----0--------0-------|----0---------0---------|
|---------------------|------------------------|
>Dm
|-1---0------------01-|-0----------------------|
|-3-----3--1-01-3-----|-0--3-1-0---------------|
|-2----------2--------|------------2-----------|
|-0----------0--------|------------------------|
|---------------------|------------0-----------|
|---------------------|-0----------------------|
|-3-3-----3-3-1-0-1-5-|-1-1-----1-1-0---0-3----|
|---2---2---3---------|---0---0-------3------1-|
|---2-2-----2---------|---0-0----------------0-|
|-----------0---------|------------------------|
|---0-----------------|-----------3-------3----|
|---------------------|---3--------------------|
|---0------10----------------|---0------10------------------|
|--------10--13-12-10-10---9-|--------10--13-12-10-10-9--10-|
|-7----10------------------7-|-7----10----------------7---9-|
|-0------------------------9-|-0----------------------9--10-|
|----------------------------|----------------------------0-|
|--------------------------0-|------------------------0-----|
(1)Под небом голубым, есть город золотой.
С прозрачными воротами и яркою звездой.
А в городе том - сад, все травы, да цветы
Гуляют там животные невиданной красы.
Припев:Одно, как желтый огнегривый лев,
Другое - вол исполненный очей.
С ними золотой орел небесный
Чей так светел взор незабываемый.
(2)А в небе голубом горит одна звезда.
Она твоя, о, ангел мой, она твоя всегда.
Кто любит тот любим, кто светел тот и свят
Пускай ведет звезде тебя дорогой в дивный сад.
Припев:Тебя там встретит огнегривый лев
И синий вол, исполненный очей.
С ними золотой орел небесный
Чей так светел взор незабываемый.
-
> Am E Am E Am
Под небом голубым есть город золотой,
> Dm F E7
С прозрачными воротами и яркою звездой.
> Am E Am E Am
А в городе том сад, все травы да цветы;
> Dm E7 Am
Гуляют там животные невиданной красы.
> A7 Dm
Одно - как желтый огнегривый лев,
> G C A7
Другое - вол, исполненный очей;
> Dm F E7
С ними золотой орел небесный,
> Dm F E7 Am
Чей так светел взор незабываемый.
А в небе голубом горит одна звезда;
Она твоя, о ангел мой, она твоя всегда.
Кто любит, тот любим, кто светел, тот и свят;
Пускай ведет звезда тебя дорогой в дивный сад.
Тебя там встретит огнегривый лев,
И синий вол, исполненный очей;
С ними золотой орел небесный,
Чей так светел взор незабываемый.
Документ
Категория
Ноты, аккорды
Просмотров
4
Размер файла
18 Кб
Теги
аквариум, город
1/--страниц
Пожаловаться на содержимое документа