close

Вход

Забыли?

вход по аккаунту

?

Албениз Исаак - Кордоба

код для вставкиСкачать
Ъю№фюср
!
!
бђ№ющ: [DADGBE]
арчьх№: 3/4
[ |
|
|
|
|
|
|
|
|
|------------------------|------------------------|-----------------------|
|------------------------|------------------------|-----------------------|
|------------------------|------------------------|-----------------------|
|------------------------|------------------------|-----------------------|
|3-----------------------|3-----------------------|3----------------------|
|3-----------------------|3-----------------------|3----------------------|]
!
dolce
[ |
|
|
|
|
|
|
|
|
|------------------------|3-----------------------|---------------3-------|
|------------------------|3-----------------------|--------3------3-------|
|------------------------|3-----------------------|--------3------3-------|
|------------------------|------------------------|--------3--------------|
|3-----------------------|3-----------------------|-----------------------|
|3-----------------------|3-----------------------|-----------------------|
|
|
|
|
|
|
|
|
|
|6-------5-------3-------|--------5-------1-------|---------------3-------|
|3-------5-------3-------|--------5-------3-------|3-------5------3-------|
|--------5-------3-------|--------5-------2-------|2-------3------3-------|
|------------------------|------------------------|3-------5--------------|
|3-----------------------|------------------------|-----------------------|
|3-----------------------|------------------------|-----------------------|
|
|
|
|
|
|
|
|
|
|--------5---------------|3-----------------------|3----------------------|
|--------5---------------|3-----------------------|3----------------------|
|--------5---------------|3-----------------------|3----------------------|
|------------------------|------------------------|-----------------------|
|------------------------|3-----------------------|3----------------------|
|------------------------|3-----------------------|3----------------------|
|
|
|
|
|
|
|
|
|
|3-----------------------|----------------3-------|6-------4------3-------|
|2-----------------------|--------2-------2-------|5-------5------2-------|
|3-----------------------|--------3-------3-------|3-------5------3-------|
|------------------------|--------3---------------|-----------------------|
|3-----------------------|------------------------|-----------------------|
|3-----------------------|------------------------|-----------------------|
|
|
|
|
|
|
|
|
|
|--------4---------------|----------------3-------|--------4--------------|
|--------5-------6-------|2-------5-------2-------|--------5--------------|
|--------5-------5-------|1-------3-------3-------|--------5--------------|
|----------------6-------|3-------5---------------|-----------------------|
|------------------------|------------------------|-----------------------|
|------------------------|------------------------|-----------------------|
|
|
|
|
|
|
|3-----------------------|3-----------------------|
|2-----------------------|2-----------------------|
|3-----------------------|3-----------------------|
|------------------------|------------------------|
|3-----------------------|3-----------------------|
|3-----------------------|3-----------------------|
|
|
|
|
|
|
|0-----------------------|------------------------|
|------------------------|------------------------|
|9-----------------------|------------------------|
|8-------11--------------|--------10------8-------|
|10----------------------|------------------------|
|------------------------|------------------------|
|
|
|
|
|
|
|
|
|
|------------------------|4-----------------------|4----------------------|
|6-----------------------|6-----------------------|3----------------------|
|5-----------------------|5-----------------------|1----------------------|
|6-------5---------------|------------------------|-----------------------|
|----------------8-------|6-------4-------3-------|1----------------------|
|------------------------|------------------------|-----------------------|
|
|
|
|
|
|
|
|
|
|4-----------------------|4-----------------------|4----------------------|
|3-----------------------|3-----------------------|3----------------------|
|1-----------------------|1-----------------------|1----------------------|
|------------------------|------------------------|-----------------------|
|1-----------------------|1-----------------------|1----------------------|
|------------------------|------------------------|-----------------------|
|
|
|
|
|
|
|
|
|
|5-----------------------|5-----------------------|10-------------8-------|
|6-----------------------|6-----------------------|10-------------10------|
|7-----------------------|7-----------------------|10-------------9-------|
|7-----------------------|7-----------------------|12-------------7-------|
|0-----------------------|0-----------------------|-----------------------|
|------------------------|------------------------|-----------------------|
|
|
|
|
|
|
|
|
|
|10------8---------------|10------12------13------|10------8------10------|
|10------10--------------|10------13------10------|11-----10------11------|
|10------9---------------|10------12------10------|10-----10------10------|
|12------7---------------|12------10--------------|8--------------8-------|
|------------------------|------------------------|--------8-------------|------------------------|------------------------|----------------------|
|
|
|
|
|
|
|
|
|11--------------10------|8-------10------8-------|-----------------------|
|----------------11------|10------11------10------|11-------------10------|
|12--------------10------|10--------------10------|9--------------9-------|
|----------------8-------|--------8---------------|12-------------11------|
|------------------------|8---------------8-------|10-------------12------|
|13----------------------|------------------------|-----------------------|
|
|
|
|
|
|
|------------------------|------------------------|
|8-------10--------------|10----------------------|
|9-------9---------------|9-----------------------|
|12------11--------------|11----------------------|
|13------12--------------|12----------------------|
|------------------------|------------------------|
|
|
|
|
|
|
|13--------------12------|13------12------10------|
|10--------------13------|10------13------10------|
|10--------------12------|10------12------10------|
|----------------10------|--------10------12------|
|------------------------|------------------------|
|------------------------|------------------------|
|
|
|
|
|
|
|
|
|
|8---------------10------|8-------6-------5-------|3--------------1-------|
|10--------------10------|10------6-------6-------|3--------------3-------|
|9---------------10------|9-------7-------5-------|3--------------2-------|
|7---------------12------|7-------8---------------|5--------------0-------|
|------------------------|----------------8-------|-----------------------|
|------------------------|------------------------|-----------------------|
|
|
|
|
|
|
|
|
|
|3-------1-------0-------|0---------------0-------|0----------------------|
|3-------3-------3-------|2-----------------------|2----------------------|
|3-------2-------1-------|----------------7-------|-----------------------|
|5-------0---------------|2---------------8-------|2----------------------|
|----------------1-------|0---------------7-------|0----------------------|
|------------------------|----------------6-------|-----------------------|
|
|
|
|0-----------------------|
|2-----------------------|
|------------------------|
|2-----------------------|
|0-----------------------|
|------------------------|
|
|
|
|
|
|
|
|
|
|13А-------------12А-----|13А-----12А-----10А-----|8А-------------10А-----|
|10----------------------|10--------------10------|---------------10------|
|10--------------12------|10------12------10------|9--------------10------|
|----------------10------|--------10--------------|7----------------------|
|------------------------|------------------------|-----------------------|
|------------------------|------------------------|-----------------------|
|
|
|
|
|
|
|
|
|
|8А------6А------5А------|3А--------------1А------|3А-----1А------0А------|
|------------------------|------------------------|-----------------------|
|9-------7-------5-------|3---------------2-------|3-------2------1-------|
|7-------8---------------|5---------------0-------|5-------0--------------|
|----------------8-------|------------------------|---------------1-------|
|------------------------|------------------------|-----------------------|
|
|
|
|
|
|
|
|
|
|5А--------------5А------|--------5-----------1---|----1------0-----------|
|3---------------2-------|------6-----6-------3---|----3------3-------2---|
|2---------------0-------|----7-------7-------2---|----1------1-------0---|
|------------------------|--7---------7-----------|-----------------------|
|0-----------------------|5---------------4---3---|2-------1------0-------|
|------------------------|------------------------|-----------------------|
|
|
|
|
|
|
|
|
|
|--------5-----------1---|----1-------0-----------|1-------3------5-------|
|------6-----6-------3---|----3-------3-------2---|----3------3-------6---|
|----7-------7-------2---|----1-------1-------0---|----2------2-------7---|
|--7---------7-----------|------------------------|0----------------------|
|5---------------4---3---|2-------1-------0-------|-----------------------|
|------------------------|------------------------|-----------------------|
|
|
|
|
|
|
|
|
|
|12----------------------|10------8-------10------|5----------------------|
|----10------10------10--|----10------10------10--|----8------8-------8---|
|----12------12------12--|----10------10------10--|----6------6-------6---|
|------------------------|0-----------------------|--------7--------------|
|--------12------0-------|----------------0-------|7--------------0-------|
|11----------------------|------------------------|-----------------------|
|
|
|
|
|
|
|--------------------5---|----3-------5-------3---|
|------------6-------6---|----5---------------5---|
|----7-------------------|------------------------|
|----7-------7-----------|------------------------|
|8-------7-------5-------|4-----------2---4-------|
|------------------------|------------------------|
|
|
|
|
|
|
|----1-------5-------0---|------------------------|
|------------6-------3---|----2-------2-----------|
|----2---------------1---|----2-------3---2---0---|
|0-----------------------|--------5-------3---2---|
|--------3-------1-------|0-----------------------|
|------------------------|------------------------|
|
|
|
|
|
|
|
|
|
|1-------3-------5-------|12----------------------|10------8------10------|
|----3-------3-------3---|----10------10------10--|----11-----11------11--|
|----2-------2-------2---|----9-------9-------9---|----10-----10------10--|
|0-----------------------|------------------------|-----------------------|
|------------------------|------------------------|-----------------------|
|------------------------|10----------------------|8----------------------|
|
|
|
|
|
|
|
|
|
|------------------------|3-------5-------3-------|8-------6------5-------|
|----6-------6-------6---|----2-------2-------2---|----6------6-------6---|
|----5-------5-------5---|3-----------------------|--------5------8-------|
|------------------------|------------------------|7----------------------|
|------------------------|------------------------|-----------------------|
|3-----------------------|------------------------|-----------------------|
|
|
|
|
|
|
|
|
|
|----0---7-------12------|12------10------8-------|13-----12------8-------|
|9-----------5-----------|------------9-------10--|----12-----10------10--|
|--------------------9---|----9---------------9---|----13-------------9---|
|12----------------------|10------9-------7-------|12-----10------7-------|
|------------------------|------------------------|-----------------------|
|------------------------|------------------------|-----------------------|
|
|
|
|
|
|
|
|
|
|10------12------8-------|8---------------7-------|5----------------------|
|----9-------10------7---|----9-------9-------9---|----5------5-------5---|
|----9-------------------|----7-------7-------7---|----6------6-------6---|
|9-------10--------------|------------------------|-----------------------|
|----------------6-------|7-----------------------|0----------------------|
|------------------------|------------------------|-----------------------|
|
|
|
|----0-------0-------0---|
|8-------10------11------|
|------------------------|
|5-------7-------8-------|
|0-----------------------|
|------------------------|
|
|
|
|
|
|
|
|
|
|12----------------------|10------8-------10------|5----------------------|
|----11------11------11--|----11------11------11--|----5------5-------5---|
|----12------12------12--|----12------12------12--|----6------6-------6---|
|14----------------------|------------------------|7----------------------|
|0-----------------------|------------------------|-----------------------|
|------------------------|------------------------|-----------------------|
|
|
|
|
|
|
|
|
|
|----0-------0-------0---|13--------------12------|10------8------10------|
|8-------10------11------|----11------11------11--|----11-----11------11--|
|------------------------|----12------12------12--|----12-----12------12--|
|5-------7-------8-------|------------------------|-----------------------|
|0-----------------------|0-----------------------|-----------------------|
|------------------------|------------------------|-----------------------|
|
|
|
|
|
|
|
|
|
|5-----------------------|------------5-------8---|-------------------8---|
|----5-------5-------5---|----6-------6-------6---|----5------8-------8---|
|----6-------6-------6---|----5---------------5---|----5------5-----------|
|7-----------------------|7-------5---7---5---7---|5---7---5----------10--|
|------------------------|------------8-----------|-----------8---7-------|
|------------------------|------------------------|-----------------------|
|
|
|
|
|
|
|
|
|
|----1-------6-------1---|----0-------5-------3---|1---0--------------5---|
|------------------------|------------------------|--------3--5---6-------|
|----3-------3-------3---|----2-------2-------2---|2----------------------|
|0-----------0---2---0---|----0-------------------|0----------------------|
|--------4---------------|4-------4---2---0-------|---------------4---3---|
|------------------------|------------------------|-----------------------|
|
|
|
|
|
|
|
|
|
|0---1---0-----------0---|------------------------|-----------------------|
|3-----------3---2-------|3---5---3-----------3---|2----------------------|
|1---------------0-------|3-----------5---3-------|2----------------------|
|------------------------|3-----------------------|5----------------------|
|2-------1-------0-------|------------------------|0---1---0------0-------|
|------------------------|6-----------------------|-----------6-------2---|
|
|
|
|
|
|
|0-----------------------|0-------1-------3-------|
|----3-3-3b--3-------3---|------3-----3-------3---|
|----3-3-3---3-------3---|------------3-------3---|
|----2b2b2---2b------2---|----2-------2-------2---|
|0---------------0-------|0---------------0-------|
|------------------------|------------------------|
|
|
|
|
|
|
|0---------------1-------|------------------------|
|----3-3-3b--3-------3---|3-------2---------------|
|----3-3-3---3-------3---|------2-----2-------2---|
|----2b2b2---2b------2---|------------2-------2---|
|0---------------0-------|0---4-----------0-------|
|------------------------|------------------------|
|
|
|
|
|
|
|
|
|
|1-------0-------1-------|0-------0-------0-------|0--------------0-------|
|1-------1-------1-------|1-------3-------2-------|3--------------3-------|
|2-------0-------2-------|0-------1-------2-------|3--------------3-------|
|------------------------|2---2---2---2---2---2---|2--------------2-------|
|----3-------3-------3---|3b--3b--1b--1b--0b--0b--|-----------------------|
|3-----------------------|------------------------|6---6------6-------6---|
|
|
|
|
|
|
|
|
|
|0-------------------5А--|------------------------|-----------------------|
|2-----------------------|------------------------|--------0------2-------|
|------------------------|--------0-------2-------|2-------0------0-------|
|------------7{----------|4-----------------------|5----------------------|
|0---0-------------------|0---0-------0-------0---|4---4------0-------0---|
|------------------------|0-----------------------|2----------------------|
|
|
|
|
|
|
|
|
|
|2-------3-------5-------|------------------------|-----------------------|
|3-----------------------|2-------3-------5-------|-----------------------|
|2-------0-------2-------|0-----------------------|2--------------2-------|
|0-----------------------|--------0-------2-------|4----------------------|
|----0-------0-------0---|----0-------0-------0---|0---0------0-------0---|
|4-----------------------|2-----------------------|0----------------------|
|
|
|
|
|
|
|
|
|
|------------------------|------------------------|-----------------------|
|------------------------|--------0-------1-------|0----------------------|
|2---------------2-------|2-------0-------0-------|0--------------2-------|
|4-----------------------|5-----------------------|2----------------------|
|3---0-------0-------0---|4---4-------0-------0---|4---0------0-------0---|
|1-----------------------|2-----------------------|-----------------------|
|
|
|
|2-------3-------5-------|
|3-----------------------|
|2-------0-------2-------|
|4-----------------------|
|0---0-------0-------0---|
|0-----------------------|
|
|
|
|
|
|
|
|
|
|5-------7-------9-------|10------12------14------|9------10------12------|
|2-----------------------|10----------------------|-----------------------|
|2-------4-------6-------|--------9-------11------|12-------------9-------|
|5-----------------------|12----------------------|11-----12--------------|
|0---0-------0-------0---|9---0-------0-------0---|7---0------0-------0---|
|2-----------------------|------------------------|-----------------------|
|
|
|
|
|
|
|
|
|
|------------------------|5-----------------------|5-------7------9-------|
|10----------------------|4-----------------------|2-------0--------------|
|11----------------------|----------------2-------|2--------------6-------|
|----------------7-------|4-----------------------|5----------------------|
|0---0-------0-------0---|0---0-------0-------0---|4---0------0-------0---|
|0-----------------------|1-----------------------|2----------------------|
|
|
|
|
|
|
|
|
|
|7---------------5-------|0-----------------------|-----------------------|
|0-----------------------|----1-1-1b--1-------1---|--------1------3-------|
|6---------------2-------|----0-0-0---0-------0---|------0----0-------0---|
|5-----------------------|----2-2-2---2-------2---|-----------2-------2---|
|7---0-------0-------0---|----0b0b0---0b--0-------|----0----------0-------|
|------------------------|0-----------------------|0----------------------|
|
|
|
|
|
|
|
|
|
|0-------2-------3-------|0-----------------------|-----------------------|
|------1-----1-------1---|----1-1-1b--1-------1---|4----------------------|
|------------0-------0---|----0-0-0---0-------0---|----5-5-5--5-------5---|
|----2-------2-------2---|----2-2-2---2-------2---|----5-5-5--5-------5---|
|----------------0-------|----0b0b0---0b--0-------|----6-6-6--6---0-------|
|0-----------------------|0-----------------------|0----------------------|
|
|
|
|
|
|
|
|
|
|------------------------|------------------------|-----------------------|
|--------1-------3-------|4-------6-------8-------|3----------------------|
|------0-----0-------0---|------5-----0-------0---|----2------2-------2---|
|------------1-------1---|------------------------|-----------4-------4---|
|----0-----------0-------|----6-----------0-------|------5-5------3-------|
|0-----------------------|0-----------------------|0----------------------|
|
|
|
|
|
|
|--------0-------3-------|--------5---------------|
|3-------0-------3-------|7-------3-------1-------|
|0-------0-------0-------|5-------5---------------|
|0---0-------0-------0---|7---0-------0---4---0---|
|2-----------------------|0-----------------------|
|------------------------|----------------0-------|
|
|
|
|
|
|
|----------------7-------|8-------9-------12------|
|0-------6-------6-------|7-----------------------|
|4-------4-------4-------|5-------6-------9-------|
|3---0-------0-------0---|----0-------0-------0---|
|------------------------|0-----------------------|
|6-----------------------|------------------------|
|
|
|
|
|
|
|
|
|
|10------15------12------|14------12------10------|7-------8------9-------|
|10----------------------|13----------------------|6----------------------|
|0-------12------9-------|--------9-------7-------|4-------5------6-------|
|----0-------0-------0---|----0-------0-------0---|----0------0-------0---|
|------------------------|0-----------------------|-----------------------|
|9-----------------------|------------------------|6----------------------|
|
|
|
|
|
|
|
|
|
|9-------12------10------|101010108-8-8-8-6-6-6-6-|1010101088-8-8-6-6-6-6-|
|7-----------------------|6-6-6-6-6-6-6-6-6-6-6-6-|6-6-6-6-66-6-6-6-6-6-6-|
|6-------9-------7-------|7-7-7-7-7-7-7-7-7-7-7-7-|7-7-7-7-77-7-7-7-7-7-7-|
|----0-------0-------0---|6-6-6-6-6-6-6-6-6-6-6-6-|6-6-6-6-66-6-6-6-6-6-6-|
|0-----------------------|8-8-8-8-8-8-8-8-8-8-8-8-|8-8-8-8-88-8-8-8-8-8-8-|
|------------------------|6-6-6-6-6-6-6-6-6-6-6-6-|6-6-6-6-66-6-6-6-6-6-6-|
|
|
|
|
|
|
|
|
|
|101010108-8-8-8-6-6-6-6-|------------------------|-----------------------|
|6-6-6-6-6-6-6-6-6-6-6-6-|3-3-3-3-----------------|3-3-3-3----------------|
|7-7-7-7-7-7-7-7-7-7-7-7-|3-3-3-3-5-5-5-5-3-3-3-3-|3-3-3-3-55-5-5-3-3-3-3-|
|6-6-6-6-6-6-6-6-6-6-6-6-|3-3-3-3-3-3-3-3-3-3-3-3-|3-3-3-3-33-3-3-3-3-3-3-|
|8-8-8-8-8-8-8-8-8-8-8-8-|5-5-5-5-5-5-5-5-5-5-5-5-|5-5-5-5-55-5-5-5-5-5-5-|
|6-6-6-6-6-6-6-6-6-6-6-6-|6-6-6-6-6-6-6-6-6-6-6-6-|6-6-6-6-66-6-6-6-6-6-6-|
|
|
|
|
|
|
|
|
|
|------------------------|------------------------|-----------------------|
|3-3-3-3-----------------|3-3-3-3-----------------|-----------------------|
|3-3-3-3-5-5-5-5-3-3-3-3-|3-3-3-3-5-5-5-5-3-3-3-3-|--------0------1-------|
|3-3-3-3-3-3-3-3-3-3-3-3-|3-3-3-3-3-3-3-3-3-3-3-3-|4----------------------|
|5-5-5-5-5-5-5-5-5-5-5-5-|5-5-5-5-5-5-5-5-5-5-5-5-|5---0------0-------0---|
|6-6-6-6-6-6-6-6-6-6-6-6-|6-6-6-6-6-6-6-6-6-6-6-6-|7----------------------|
|
|
|
|
|
|
|------------------------|------------------------|
|------------------------|--------0-------1-------|
|2---------------2-------|2-------0-------0-------|
|4---------------4-------|5-----------------------|
|3---0-------0-------0---|----0-------0-------0---|
|------------------------|------------------------|
|
|
|
|
|
|
|------------------------|2-------3-------4-------|
|2-------5-------8-------|3-----------------------|
|0-------0-------0-------|--------0-------1-------|
|2-------2-------5-------|4-------2-------0-------|
|----0-------0-------0---|----0-------0-------0---|
|------------------------|------------------------|
|
|
|
|
|
|
|
|
|
|5---------------5-------|5-------7-------8-------|9------12------17------|
|4---------------4-------|2-----------------------|8----------------------|
|5---------------5-------|0-------4-------5-------|6-------9------14------|
|4---------------4-------|------------------------|-----------------------|
|----0-------0-------0---|----0-------0-------0---|----0------0-------0---|
|------------------------|------------------------|-----------------------|
|
|
|
|
|
|
|
|
|
|13--------------12------|13------12------10------|8--------------10------|
|10----------------------|10--------------10------|10-------------10------|
|10--------------12------|10------12------10------|9--------------10------|
|----------------10------|--------10------12------|7--------------12------|
|------------------------|------------------------|-----------------------|
|------------------------|------------------------|-----------------------|
|
|
|
|
|
|
|
|
|
|8-------6-------5-------|3---------------1-------|3-------1------0-------|
|10------6-------6-------|3---------------3-------|3-------3------3-------|
|9-------7-------5-------|3---------------2-------|3-------2------1-------|
|7-------8---------------|5---------------0-------|5-------0--------------|
|----------------8-------|------------------------|---------------1-------|
|------------------------|------------------------|-----------------------|
|
|
|
|
|
|
|
|
|
|5---------------5-------|1-------3-------5-------|12---------------------|
|6---------------2-------|----3-------3-------6---|----10-----10------10--|
|7---------------0-------|----2-------2-------7---|----12-----12------12--|
|7-----------------------|0-----------------------|-----------------------|
|0-----------------------|----------------0-------|-------12------0-------|
|------------------------|------------------------|11---------------------|
|
|
|
|
|
|
|10------8-------10------|5-----------------------|
|----10------10------10--|----8-------8-------8---|
|----10------10------10--|----6-------6-------6---|
|0-----------------------|--------7---------------|
|----------------0-------|7---------------0-------|
|------------------------|------------------------|
|
|
|
|
|
|
|------------1-------5---|----3-------5-------3---|
|----3---------------6---|----5---------------5---|
|----2-------2-----------|------------------------|
|3-------2-------0-------|------------------------|
|------------------------|4-----------2---4-------|
|------------------------|------------------------|
|
|
|
|
|
|
|
|
|
|----1-------5-------0---|------------------------|1-------3------5-------|
|------------6-------3---|----2-------2-----------|----3------3-------3---|
|----2---------------1---|----2-------3---2---0---|----2------2-------2---|
|0-----------------------|--------5-------3---2---|0----------------------|
|--------3-------1-------|0-----------------------|-----------------------|
|------------------------|------------------------|-----------------------|
|
|
|
|
|
|
|
|
|
|12----------------------|10------8-------10------|5----------------------|
|----10------10------10--|----11------11------11--|----6------6-------6---|
|----9-------9-------9---|----10------10------10--|----5------5-------5---|
|------------------------|------------------------|-----------------------|
|------------------------|------------------------|-----------------------|
|10----------------------|8-----------------------|3----------------------|
|
|
|
|
|
|
|
|
|
|------------------------|8---------------0-------|1---3---5--------------|
|10------8-------10------|----11--10------3-------|----3------3-------2---|
|----6-------6-------5---|----------------1-------|----2------2-------0---|
|8-----------------------|11------10--------------|-----------------------|
|------------------------|8-------8-------3---1---|0----------------------|
|------------------------|8-----------------------|---------------3---2---|
|
|
|
|
|
|
|
|
|
|----------------1---5---|0-------1-------3-------|0----------------------|
|------------3---3---6---|----2-------2-------2---|-----------------------|
|--------2---2-----------|----3-------3-------3---|----6------6-------6---|
|----3---3---------------|0-----------------------|8----------7---5-------|
|----5-------------------|------------------------|-----------------------|
|0-----------------------|------------------------|-----------------------|
|
|
|
|
|
|
|------------------------|----0-------0-------0---|
|10------8-------6-------|11------10------8-------|
|----7-------6-------7---|------------------------|
|----------------0-------|--------7-------8-------|
|8-------7---------------|10----------------------|
|------------------------|------------------------|
|
|
|
|
|
|
|------------------------|----0-------------------|
|----6---------------6---|------------1-----------|
|----7-------10------7---|----7-------3---0-------|
|7-------8-------7-------|6-------------------7---|
|------------------------|--------0---------------|
|------------------------|------------------------|
|
|
|
|
|
|
|
|
|
|----0---1---3---5---3---|1---3---0---1-----------|0-------1------3-------|
|3---2---3---5---6---5---|3---5---2---3---3-------|----2------2-------2---|
|2---0---2---3---7---3---|2---3---0---2---2-------|----3------3-------3---|
|3-----------------------|----------------3-------|0----------------------|
|------------------------|------------------------|-----------------------|
|0-----------------------|------------------------|-----------------------|
|
|
|
|
|
|
|
|
|
|0-----------------------|--------1-------5-------|----0------0-----------|
|----2-------2-------2---|3-------------------6---|10-------------3-------|
|3-----------2---0-------|----2-------2-----------|-------------------1---|
|------------------------|3-------2-------0-------|----7------7-------3---|
|------------------------|------------------------|---------------1-------|
|------------------------|------------------------|10---------------------|
|
|
|
|
|
|
|
|
|
|------------------------|------------------------|--------5----------1---|
|3-------5-------6-------|10------8-------2-------|------6----6-------3---|
|2-------3-------5-------|9-------7-------2---0---|----7------7-------2---|
|3-------5-------7-------|10------8-------3---2---|--7--------7-----------|
|0---0-------0-------0---|----0-------0-------0---|5--------------4---3---|
|------------------------|------------------------|-----------------------|
|
|
|
|
|
|
|
|
|
|----1-------0-----------|--------5-----------1---|----1------0-----------|
|----3-------3-------2---|------6-----6-------3---|----3------3-------2---|
|----1-------1-------0---|----7-------7-------2---|----1------1-------0---|
|------------------------|--7---------7-----------|-----------------------|
|2-------1-------0-------|5---------------4---3---|2-------1------0-------|
|------------------------|------------------------|-----------------------|
|
|
|
|
|
|
|------------------------|----0---1---3---5---3---|
|------------------------|----2---3---5---6---5---|
|------------0---2---0---|----0---2---3---7---3---|
|----2---3---2---3---2---|3-----------------------|
|----4---5---------------|5-----------------------|
|0-----------------------|------------------------|
|
|
|
|
|
|
|1---0А--1А--3А--5А--3А--|1А----------------------|
|3---2---3---5---6---5---|3-----------------------|
|2-----------------------|------------------------|
|------------------------|------------------------|
|------------------------|------------------------|
|------------------------|------------------------|
|
|
|
|
|
|
|5-----------------------|10----------------------|
|2-----------------------|10----------------------|
|0-----------------------|10----------------------|
|------------------------|------------------------|
|0-----------------------|------------------------|
|------------------------|0-----------------------|
|
|
|
|
|
|
|------------------------|------------------------|
|------------------------|------------------------|
|------------------------|------------------------|
|------------------------|------------------------|
|------------------------|------------------------|
|------------------------|------------------------|]
Документ
Категория
Ноты, аккорды
Просмотров
8
Размер файла
36 Кб
Теги
кордоба, албениз, исаак
1/--страниц
Пожаловаться на содержимое документа