close

Вход

Забыли?

вход по аккаунту

?

Албениз Исаак - Маллёрка (Баркаролла)

код для вставкиСкачать
Маллёрка (Баркаролла)
!Обозначения:
!Cn = Баррэ на n-ом ладу
!R = Раскуедо или арпеджато
!/ = Слайд
!h = Хаммер
!p = Пулл
!==== Тянуть
!( ) = Натуральный или искусственный флажолет
!Строй: [DADGBE]
[ 4 2
3 1 2 3 1
E||--------------------|--------------------|
B||-------------2------|-------------2------|
G||----3--2-------3--2-|----3--2-------3--2-|
D||----3-----2---------|----3-----2---------|
A||-------0----------0-|-------0----------0-|
D||-0------------------|-0------------------|
m m p i i m
i p p
1 3 1
3 4 3 1 2
4 2 2 3 4 2 3 2 4 2 4 1 1 4 2
R
--------------------|--------------------|-5-------0-3-5-8-6--|
------------6-------|----------------6---|----3--2------------|
------------7-------|-------------7------|----2--3------------|
----7=====--7-------|----7=====----------|----3--5------------|
----8=====----------|----8=====0---------|--------------------|
-0-----6/7----------|-0-----6------------|-0------------------|
1 2
1 2 1 4 2 4 3 2 1 4 2 1 2 3 4 1
R
-5-------0-3-5-8-6--|-5h6p5-------5-6-----------------|
----3--2------------|-------8-6h8-----5h6p5-4-5h6-8-5-|
----2--3------------|---------------------------------|
----3--5------------|-------------7-------------------|
--------------------|-----------------4-----------0---|
-0------------------|-0-------------------------------|
a m i a m i m i m i
p p p p
2
2 4 2 1 3 1 4 1 4 2 1
R R
-----------------------|-5-------0-3-5-8-6--|-5-------0-3-5-8-6--|
-6h8p6-5---5-----2-----|----3--2------------|----3--2------------|
---------7---3=====3-2-|----2--3------------|----2--3------------|
-------------5-2-------|----3--5------------|----3--5------------|
-------------0-------0-|--------------------|--------------------|
-0---------------------|-0------------------|-0------------------|
m a m a m p i i
p i
p
|C3--------- |C1--------- |C8--
| 3 1 | |
|4 1 1 | 1 2 1 1 2 2 |
|1 1 2 1 4 4 2|1 3 4 1 3 2 1 1 3 1 1 3 4 |1
R
-5=======3-------1-|------(1)----5----|-8======-5-8-10-12-8--|
-----------6/4-2---|-1-----1--6-------|-------6--------------|
----5--3-----------|----2-------------|----9-----------------|
----3--3-----------|----3-------------|----8--7--------------|
----3--4-----------|------------------|-8--------------------|
-3-----------------|-3----------------|----------------------|
i m a i m a m i a m
p p p
1 1
4 1 2 4 2 4
1 1 2 4 3 4 3 1 4 1 3 1 1 4 3 1 2 1 4 2 1 3 1 1 4 2 1 2 1 4 2
R R R R R R
---8-9----------------|-5-----------------5-8p6-|-5-----------------5-8p6-|
-11---11-6-8----6--8--|-------------6-5-6-------|-------------6-5-6-------|
---------6---5--------|-----0-2-5---------------|-----0-2-5---------------|
---------8---7--------|-----------8-7-----------|-----------8-------------|
-8-----------8--------|---4---------------------|---4---------------------|
----------------------|-2-----------0-----------|-2-----------0-----------|
i m i m m m i m i
p i
p
4 1 4
2 2 3 3
1 4 4 1 3 4 1 4 3 1 4 1 2 1 4 4 1 2 1 4 2 2 1 3 4 1 2
R R R R
-5-6-5-3-1-3-5--------|-0-----------0-1-0---0-6-|---------6-10-9-----0-----|
---------2-------6----|-3-----------3-----4-----|-2p3-5-8-------11-----2---|
-5-------3---5--------|-0h2-0---0-2-3-------0---|-0---------------12-----3-|
-3-----------3--------|-------4-----------------|--------------------------|
----------------------|-------------------------|-0------------------------|
----------------------|-------------------------|--------------------------|
i p m i p a m i a m m i m i m i m i a m i
p i
p
1
4 1 2 1 4 2 4 3 2 1 2 3 4 1
R R
-5-------0-3-5-8-6--|-5-------0-3-5-8-6--|-5h6p5-------5h6-----------------|
----3--2------------|----3--2------------|-------8-6h8-----5h6p5-4-5h6-8-5-|
----2--3------------|----2--3------------|---------------------------------|
----3--5------------|----3--5------------|-------------7-------------------|
--------------------|--------------------|-----------------4-----------0---|
-0------------------|-0------------------|-0-------------------------------|
3
2 2 3 3
4 1 4 1 3 1 1 4 2 4 1 1 2 1 4 2
R R R
------------------------|10======---6-10-13-11--|10----------------------|
-6h8p6-5---5-----2------|---10----8-------------|----7---8---------------|
---------7---3=====3-2--|-------0---------------|----5---7-----0---------|
-------------5-2--------|---10------------------|------0-----0---7-10p8--|
-------------0-------0--|----9------------------|-0----------------------|
-0----------------------|-0---------------------|----------8-------------|
2 4 4 4
4 2 1 2 1 1
3 1 3 1 3 3 1 2 1 3 2 4 3 2 3 4 1 2
R R R R R R R
-------------------|---------------------|-1--1--0-----------|
-------3-----------|----5--6-----------3-|-3--3--1-------1---|
----6--2-----------|----3------------2---|-3-------------1h2-|
-7--8--0-----------|-------------0-3-----|-3--3--------3-----|
-------------0-3p1-|-0--4--5---4---------|-1-------2h3-------|
----5--3-2-3-------|-------0-------------|-------3-----------|
m a
i p
p p
1 |C6-----------------
2 4 | 1
4 1 4 2 2 | 2 3 4 4 3 1 1 3 1 3 1 3 1 3 3 1 2
R
-------------1--6--|---------8-6---6-13p11-----|-----------------|
-------------3--6--|-----8h9-----8--------13-11|-8-6-------------|
-3---0-2-5p3-2--7--|---8-----------------------|-----8/5-3-0-3---|
---0------------6--|-8-------------------------|-----------------|
-------------0-----|-6-------------------------|-----------------|
-5-----------------|---------------------------|-----------------|
|C2---- |C5-|C7---------
|C5---- | | | 1
3 1 1 2 2 | 4 1 2 1 4 1 3 4 1 4 1 1 | 3 |1 |1 1 3 4
R R
-----------------5-6-9h12|-9---------------|-2---3---5---7---9---10--|
-------------5h8---------|--11-------------|-3-3---3---7---7---7---7-|
-----0-2-3/6-6-----------|----12-9---------|-2-2---2---7---7---7---7-|
---2---------5-----------|--------11-8-7---|-0-----------------------|
-4-----------------------|-----------------|-0-----------------------|
-------------7-----------|-----------------|-0-----------------------|
4 1 4 1
3 C1 1 3 1 1 1 3 1
| R
-9-7-9---5---7-------|-2---3---5---7---9---10--|-9-7-9---5------------|
---7---7---7---7-7-7-|-3-3---3---7---7---7---7-|---7---7---7-7--------|
---7---7---7---7-7-7-|-2-2---2---7---7---7---7-|---7---7---7---7-7-7--|
---------------------|-0-----------------------|---------------7-7-7--|
---------------------|-0-----------------------|----------------------|
---------------------|-0-----------------------|----------------------|
2 4 2 3
1 1 3 4 3 3 2 1 3 4 1 3 1 3 2 1 2
R R
-----5---7-----------7---|----12--10----------------|
-5-----------8-7-5-----8-|10----------12p10-7--10---|
---6---6---6---6---6---6-|--11--11--11--------7--11-|
---5---5---5---5---5-----|--12--12--12-----------12-|
-0-----------------------|-0------------------------|
-0-----------------------|-0------------------------|
m i a i a i a m a i a m
p p p p i p i
p
2 4 2 2
3 1 4 4 3 1 1 4 2 1 3 1 2 3 4 3
R 2 1
-----14--12------------0----|-----------0-----------|
-12----------14p12-10-------|-12h14-10------8-------|
---12--12--12--------12--12-|---------12--6---6-6-6-|
---11--11--11--------11--11-|---------11--7---7-7-7-|
--0-------------------------|-----------------------|
--0-------------------------|-----------------------|
1 1 1
3 4 1 1 3 4 1 4 3
R
-------------------------|-----------------------|
---3---3---7---7---7---7-|---7----7---7---7-7-7--|
---2---2---7---7---7-7---|---7----7---7---7-7-7--|
-4---5---7---9--11-------|11-9-11---7---9--------|
-0-----------------------|-----------------------|
-0-----------------------|-----------------------|
1 |C6-----
2 1 2 3 2 |1 4 4 3 2
3 4 1 2 3 4 2 4 3 1 4 1 |1 2 1 4 2 1 4 1
R
---3---3---7---7---7---7-|---7---7---7---------|-6---6--13-11------6---|
---3---3---8---8---8-8-8-|-7-8---8---8---8-8-8-|--10---6-----11-11---4-|
-4---5---7---9--11-------|---9-11--7-----7-7-7-|---7---7------8--8---3-|
-5-----------------------|-------------9-------|-6---------------------|
-------------------------|------------10-------|-----------10----------|
-------------------------|---------------------|-----------------------|
|C5-----
|1 4 4 3 2 2 4
|1 4 1 4 2 1 4 1 1 3 2 4 1 4 1 3
|
-5---5--12-10------5---|-----0---2-------7-10-12-14-|
---9---5-----10-10---3-|-3-----3---3-8-10-----------|
---9---6------7--7---2-|---4---4---4----------------|
-5---------------------|---4------------------------|
------------9----------|-2--------------------------|
-----------------------|----------------------------|
4 4
2 1 2
4 1 1 1 1 3 1 3 1 1 1 3 4 3 1
R R
-15------14-10-----------------|-----3---3---3-------3---3-|
-0-----------7-----------------|-----2---2---2-------2---2-|
-0-------12--7-----------------|-------2---4-----------4---|
-12------11--------------------|---2-----------5p4-2-------|
-0-0-(12)--0--------9-7h9p7-5--|-0-------------------------|
-------------0--6/7------------|---------------------------|
1 4 4 3 2
4 1 1 2 2 1 3 4 1 1 2 1
---3-------------5--|-13--12-13-12-12---------|
---2-0-5p2-0-----8--|---10-----------11-15-13-|
-2-----------6------|----------------10-------|
---------------7-7--|-12--------10--8---------|
--------------------|----------------------12-|
--------------------|-------------------------|
4 4 4 1 4 1 4 2 3
1 3 2 1 2 1 1 2 2 1 3 1 2 1 4 2 1 1 2 4 1 4 2 2 3 2 2
--------------------------|-------------------|-0---0--------------------0-0-|
-11--10-11-10--10---8-6---|---3---3---3-------|-3---3------------------------|
---------9----7---7-6---7-|---3---3-0-3-5p3-2-|---0-----------5p3/9------7-7-|
---11---------7---8-------|-2---3-------------|-------------7-------10-8-----|
-10---------8---7-----5---|-------------------|-------7h8-10-----------------|
--------------------------|-------------------|------------------------------|
4 2 2 4 1
4 3 4 2 3 1 3 2
3 2 3 3 1 3
R
---0-0---0---0-0---0-|--12--10---7---3---2---1--|-2---3---5---7---9--10---|
---2-2-------2-2-----|-----------8---3---2---2--|-3-3---3---7---7---7---7-|
---2-2-------2-2-----|--12--11---7---4---0---0--|-2-2---2---7---7---7---7-|
---------0---------0-|--------------------------|-0-----------------------|
-0-----1---0-----1---|-0---0---0---0---0---0----|-0-----------------------|
-----2---------2-----|--------------------------|-0-----------------------|
R
-9-7-9---5---7-------|-2---3---5---7---9---10--|-9-7-9---5------------|
---7---7---7---7-7-7-|-3-3---3---7---7---7---7-|---7---7---7-7--------|
---7---7---7---7-7-7-|-2-2---2---7---7---7---7-|---7---7---7---7-7-7--|
---------------------|-0-----------------------|---------------7-7-7--|
---------------------|-0-----------------------|----------------------|
---------------------|-0-----------------------|----------------------|
R R
-----5---7-----------7---|----12--10----------------|
-5-----------8-7-5-----8-|10----------12p10-7--10---|
---6---6---6---6---6---6-|--11--11--11--------7--11-|
---5---5---5---5---5-----|--12--12--12-----------12-|
-0-----------------------|-0------------------------|
-0-----------------------|-0------------------------|
R
----14--12------------0----|-----------0-----------|
12----------14p12-10-------|-12h14-10------8-------|
--12--12--12--------12--12-|---------12--6---6-6-6-|
--11--11--11--------11--11-|---------11--7---7-7-7-|
-0-------------------------|-----------------------|
-0-------------------------|-----------------------|
R
-------------------------|-----------------------|
---3---3---7---7---7---7-|---7----7---7---7-7-7--|
---2---2---7---7---7-7---|---7----7---7---7-7-7--|
-4---5---7---9--11-------|11-9-11---7---9--------|
-0-----------------------|-----------------------|
-0-----------------------|-----------------------|
---3---3---7---7---7---7-|---7---7---7---------|-6---6--13-11-6-6-6----|
---3---3---8---8---8-8-8-|-7-8---8---8---8-8-8-|-6-10--6---------------|
-4---5---7---9--11-------|---9-11--7-----7-7-7-|-7-----7------8-8---8--|
-5-----------------------|-------------9-------|-6------------------8--|
-------------------------|------------10-------|-----------10----------|
-------------------------|---------------------|-----------------------|
-5---5--12-10----------|-0-----0---6---------0---|-------------------0-----|
-5-9---5------10----10-|---3-4---3---6-----------|-------8---6-------------|
-6-----6----------10---|---3-----3---------2-6p3-|-------7-3---------------|
-5--------------0------|-------------5-4-5-------|-------8-----------------|
------------8----------|-------------------------|-7-6-7-----------0-3p1---|
-----------------------|-5-----------------------|-----------5-4-5---------|]
! октавные
[-----------------------(5)|---------------------|
-3p2-3-------2p1-2--------|-----ПОВТОРИТЬ-С-----|
-2-----------0------------|-------1-ПО-33-------|
-3-------(0)-2-----(0)----|---------------------|
-0-----------0------------|---------------------|
-------0------------------|---------------------|
2
4 1
3 2 3 1 4 1 4 2 1 1 4 2
|------------------5--8--6-|------------0--3--5--8--6-|
|------------5--8----------|--------------------------|
|---3--2--6----------------|---3--2--6----------------|
|---3-----5----------------|---3-----5----------------|
|------0--7-----------0----|------0--7-----------0----|
|-0------------------------|-0------------------------|
1 3 4 3 4 1 2 1 1 3 1 4 1 3 1 1 2 1 3 2 4 3
-5-------------------10-12-|-13-17-13-12-10---------------|
-6-------------5-6-10------|---------------10-6-5---------|
-------------7-------------|----------------------7-------|
-----------7---------------|------------------------7-----|
---0-5-7-8-----------------|--------------------------8-7-|
-0-------------------------|------------------------------|
1
1
3
R R
------------10=======--||
-3=======---10=======--||
------------10=======--||
-3=======---0========--||
-5=======---0========--||
------------0========--||]
-
!Строй: [DADGBE]
!Размер: 6/8
[ 1 2
E||----1-----4--------1-----4-----|----0-----------0----------|
B||----1-5-----6-5----1-5-----6-5-|----1-----1-----1-------1--|
G||--------4--------------4-------|----------2-----------2----|
D||----2--------------2-----------|------1-2---------1-2------|
A||-0--------5-----0--------5-----|-0-----------0-------------|
D||-------------------------------|---------------------------|
3 4 5
-0-----------0-3-1--|-0-----------0-3-1--|-0h1p0-------0-1-----------------|
---------0-3--------|---------0-3--------|-------3-1-3-----0h1p0---0-1-3-0-|
----2--1------------|----2--1------------|-----------------1-----3---------|
----2--0------------|----2--0------------|-------------2---0-----------2---|
-0--3---------------|-0--3---------------|-0-------------------------------|
--------------------|--------------------|---------------------------------|
6 7 8
-----------------------|-0-----------0-3-1-|-0-----------0-3-1-|
-1h3p1-0---0-----------|---------0-3-------|---------0-3-------|
---------2-------1-----|----2--1-----------|----2--1-----------|
-------------3-----3-2-|----2--0-----------|----2--0-----------|
-0-------------2-------|-0--3--------------|-0--3--------------|
-----------------------|-------------------|-------------------|
9 10 11
-0-----------------|-------8----------|-3-----------5-7----|
----1----3-1-----1-|-------8-----5----|---------5-8-----8--|
----0--------3-1---|----5--9--5-------|----4--5------------|
----2--3-----------|-5----------------|----5--5------------|
-3-----------------|-3--7-------------|-3--8--7------------|
-------------------|-------10---------|--------------------|
12 13 14
-1-3-4-1--------------|-0-----------------0-3-1-|-0-----------------0-3-1--|
---------1-3----1--3--|-------------1-0-1-------|-------------1-0-1--------|
---------1------------|---------0---------------|---------0----------------|
---------3---5--------|-----0-2---3-2-----------|-----0-2---3-2------------|
-3-----------7--------|-2-----------0-----------|-2-----------0------------|
----------------------|---6---------------------|---6----------------------|
15 16 17
-0-1-0-------0--------|-----------------------1-|-----------5-4-----------|
-1-----3-1-3-----1----|-0-----------0-1-0---0---|-------3-6-----6-3-------|
-0-------1---0--------|-2-----------2-----3-----|-1-2-4-------------4-----|
---------3------------|-0-2-0---0-2-3-------0---|-3-------------------6-3-|
-3-----------3--------|-------4-----------------|-2-----------------------|
----------------------|-------------------------|-------------------------|
18 19 20
-0-----------0-3-1--|-0-----------0-3-1--|-0h1p0-------0-1-----------------|
---------0-3--------|---------0-3--------|-------3-1-3-----0h1p0---0-1-3-0-|
----2--1------------|----2--1------------|-----------------1-----3---------|
----2--0------------|----2--0------------|-------------2---------------2---|
-0--3---------------|-0--3---------------|-0-------------------------------|
--------------------|--------------------|---------------------------------|
21 22 23
------------------------|-5-----------5-8-6--|-5------------------|
-1h3p1-0---0------------|----5------6---6----|----2--3------------|
---------2-------1------|---------7----------|----2---------------|
-------------3-----3-2--|---------------7----|-------------2-5-3--|
-0-------------2--------|-4-----5------------|---------0-5--------|
------------------------|--------------------|-2-----3------------|
24 25 26
-------------------|--------------------|---------------3---|
-------------------|----0--1------------|-1--1--0-----------|
----1--2-------0---|-----------------2--|-2--2--0-----------|
-2--0--------2---3-|-2--3--2-------2----|---------------1-2-|
-------3-2-3-------|-------0---0-3------|----3--------3-----|
-------------------|----6----6----------|-3-------4-5-------|
27 28 29
-1--------------1--|-------------------8-6-----|-----------------|
---------3---1-----|-----------8-6---6-----8-6-|-3-1-------------|
-2-------0---2--2--|-------7-8-----7-----------|-----3-0---------|
-0---0-2---3-2--1--|-----8---------------------|---------3-0-3---|
---0---------0-----|-8-5-----------------------|-1---------------|
-------------------|-8-------------------------|-----------------|
30 31 32
-------------------2-4-7-|-4-1-------------|---------0---2---4---5---|
---------------3-5-------|-----3-------5---|-2---3-----2---2---2---2-|
-----------1-4-----------|-------4-1-------|-2-2---2---2---2---2---2-|
-------2-3---6-----------|-----------3-----|---2---2-----------------|
---2-5-------5-----------|-----------------|-0-----------------------|
-6-----------2-----------|-2---------------|-------------------------|
33 34 35
-4-2-4---0---2-------|---------0---2---4---5---|-4-2-4---0------------|
---2---2---2---2-2-2-|-2---3-----2---2---2---2-|---2---2---2-2--------|
---2---2---2---2-2-2-|-2-2---2---2---2---2---2-|---2---2---2---2-2-2--|
---------------------|---2---2-----------------|---------------2-2-2--|
---------------------|-0-----------------------|----------------------|
-2-------------------|-------------------------|-2--------------------|
36 37 38
-----0---2-----------2---|-----7---5---------------|-----9---7---------------|
-0-----3---3-3-2-0-----3-|-5-----------7-5-----5---|-7-----------9-7---------|
-2-1---1---1-------1---1-|---6---6---6-----6-----6-|---7---7---7-----9-7-----|
---0---------------------|-7-7---7---7-------7---7-|-7-6---6---6-------6-9-6-|
-0-----------------------|-------------------------|-------------------------|
-------------------------|-7-----------------------|-7-----------------------|
39 40 41
-2-4-----------------|-------------------------|----------------------|
---3-5-3-----3-------|-------2---2---2---2---2-|---2---2---2---2-2-2--|
-------1-4-1---1-1-1-|---2---2---2---2---2-2---|-1-2---2---2---2-2-2--|
-----------2---2-2-2-|---2-0---2---4---6-------|---4-6---2---4--------|
---------------------|-4-----------------------|----------------------|
---------------------|-------------------------|----------------------|
42 43 44
---------5---7---9---10---|-9-7-9---5-----------|---------8---6---------|
-7---8-----7---7---7----7-|---7---7---7-7-------|-6-5-6-----6-------6---|
---7---7---7---7---7----7-|---7---7---7-7-7-7-7-|---5---5---5-7---------|
---7----------------------|-------------0-7-7-7-|---------------8-8---8-|
-5------------------------|---------------------|-6-----------5---------|
--------------------------|---------------------|-----------------------|
45 46 47
---------7---5---------|-------------------5-7-9-|-10-----9-------------------|
-5-4-5-------------5---|-------------3-5-7---7---|-7------9-10----------------|
-7-----4---4-6---------|-2---4---6---2---7---7---|-7----9---9------6-4h6p4-7--|
---6---6-------7-7---7-|-4-4---4---4-4---7-------|----------11----------------|
-5-----------4---------|-------------2-----------|-7--7-----12-6-7------------|
-----------------------|-4-----------------------|----------------------------|
48 49 50
-------------------------|-----0---0---0---0-0-|-8---7-8-7---7---5-----|
---3---3---3---3---3---3-|---3-3---3---3---3-3-|---5-------5---6---8---|
---1---1---1---1---1---1-|---1---4-2---2-------|---5-------5---5-----5-|
-----2---4---0-------2---|-2---4-----4---2-----|-7-------5-----------5-|
-2-------------4-2-------|---------------------|-------------8-----7---|
-------------------------|---------------------|-----------------------|
51 52 53
-1---0-1-0---0---------|-------------------------|-----------------------|
---0-------------3-1---|---------------0---0---0-|-----------0-0-0---0-0-|
---1-------2---1-----2-|---2---2---2-0-2---2---2-|---2---2---2---0---2-2-|
-0---------2---3-----2-|---3---3-------3-2---0---|---3-0-2-5-3-----3-----|
---------3---2-----0---|-2---3---5---------------|-2-3-------------------|
-----------------------|-------------------------|-----------------------|
54 55 56
---------------------|---7---5------------------|---------0---2---4---5---|
---0-0---0---0-0---0-|---7---5---7--------------|-2---3-----2---2---2---2-|
---1-1---2---1-1---2-|---7---6---7---7---6---5--|-2-2---2---2---2---2---2-|
-2-----3---2-----3---|-----------7---7---6---6--|---2---2-----------------|
-----2---------2-----|-7---7---7---7-9-7-5-7-5--|-0-----------------------|
---------------------|--------------------------|-------------------------|
57 58 59
-4-2-4---0---2-------|---------0---2---4---5---|-4-2-4---0------------|
---2---2---2---2-2-2-|-2---3-----2---2---2---2-|---2---2---2-2--------|
---2---2---2---2-2-2-|-2-2---2---2---2---2---2-|---2---2---2---2-2-2--|
---------------------|---2---2-----------------|---------------2-2-2--|
---------------------|-0-----------------------|----------------------|
-2-------------------|-------------------------|-2--------------------|
60 61 62
-----0---2-----------2---|-----7---5---------------|-----9---7---------------|
-0-----3---3-3-2-0-----3-|-5-----------7-5-----5---|-7-----------9-7---------|
-2-1---1---1-------1---1-|---6---6---6-----6-----6-|---7---7---7-----9-7-----|
---0---------------------|-7-7---7---7-------7---7-|-7-6---6---6-------6-9-6-|
-0-----------------------|-------------------------|-------------------------|
-------------------------|-7-----------------------|-7-----------------------|
63 64 65
-2-4-----------------|-------------------------|---------------------|
---3-5-3-----3-------|-------2---2---2---2---2-|---2---2---2---2-2-2-|
-------1-4-1---1-1-1-|---2---2---2---2---2-2---|-1-2---2---2---2-2-2-|
-----------2---2-2-2-|---2-0---2---4---6-------|---4-6---2---4-------|
---------------------|-4-----------------------|---------------------|
---------------------|-------------------------|---------------------|
66 67 68
--------------7---9---10---|-9-7-9----------------|---------8---6---------|
-7---8---10-7---7---7----7-|---7---7-10-7-7-------|-6-5-6-----6-------6---|
---7---7----7---7---7----7-|---7---7----7-7-7-7-7-|---5---5---5-7---------|
---7-----------------------|--------------0-7-7-7-|---------------8-8---8-|
-5-------------------------|----------------------|-6-----------5---------|
---------------------------|----------------------|-----------------------|
69 70 71
---------7---5---------|---------1---------------|---------1---------------|
-5-4-5-------------5---|-0---0-------1-------0---|-0---0-------1-------0---|
-7-----4---4-6---------|---3---2---2---------0---|---3---2---2---------0---|
---6---6-------7-7---7-|-0-----3---3-0---0-2---3-|-0-----3---3-0---0-2---3-|
-5-----------5---------|---------------4---------|---------------4---------|
-----------------------|-------------------------|-------------------------|
72 73
----------------12---|-4-3-4-------------|
-10-9--10------------|-----3-----3-------|
----9--9-------------|---4-4-------------|
----10---------------|-2-6----2----------|
-7----------7--------|-------------------|
---------------------|-2------2----------|
74 75
---------------------|---------------0-3-1-|--------------0-3-1-|
-повторить-----------|-----------0-3-------|----------0-3-------|
--такты с 1 по 31 ---|-2-------1-----------|-2-------1----------|
---------------------|----3--2---------2---|----3--2------------|
---------------------|-0-------2-----------|-0-------2----------|
---------------------|---------------------|--------------------|
76 77 78
-------------------5-7-8---|-5-7-5--------------------|----------------5====-||
-5---------------5-------5-|-------5------------------|----1====------5=====-||
-5-------------5-----------|---------5-4-----5-4------|---2=====-----5======-||
-------------7-------------|-------------7-------7-2--|--2======----2=======-||
---6-7-3---7---------------|---------------7-3-2-0----|-0=======---0========-||
-7-------10----------------|-----------------------2--|----------------------||]
Документ
Категория
Ноты, аккорды
Просмотров
5
Размер файла
31 Кб
Теги
маллёрка, баркаролла, албениз, исаак
1/--страниц
Пожаловаться на содержимое документа