close

Вход

Забыли?

вход по аккаунту

?

Албениз Исаак - Пелегария (андантэ)

код для вставкиСкачать
Пелегария (андантэ)
!Строй: [EADGBE]
[ 1 2 3
E||-------------------|------------------|-----------------------|
B||-------------0-----|------------------|-----------------------|
G||-------0--2--------|----0-------------|-----------------------|
D||----2--------------|-------2----------|----0--3--2--0---3--2--|
A||-3-----------------|----------3-------|-----------------------|
E||-------------------|------------------|-----------------------|
4 5
----3--8--------10--7------5--|-----------0------|
-1--0--8--6--5--9---6------5--|--------0-----3---|
-0---------------------9---5--|--0--2------------|
-2--0--7------------6---------|------------------|
-3--------------8------11--3--|------------------|
-------8--------8-------------|------------------|
6 7
----------------------------|----3--4-----9---------------3--|
-0---------0--3--0--0-----0-|----3--4--9------------1--0===--|
----0---2--------------2----|----4--5--6-----6---------------|
----------------------------|----5--4-----------10--3======--|
----------------------------|----------8------------5======--|
----------------------------|-----------------------3======--|
8 9 10
-8--------------7--|-13-----------------|---------13--------------------|
-------5-----8-----|----------------10--|-12--13------------------------|
----------5--------|--------10----------|----------------10------13--10-|
----9--------------|------------10------|-------------------------------|
-------------------|----12--------------|------------11------14---------|
-8-----------------|-8------------------|---------8---------------------|
11 12 13
-12-------------------|--------------------|-----10--12--15------|
----------------------|---------10--12--13-|---------------------|
--------9------12-----|-12-----------------|-----------------14--|
-----------10---------|---------10---------|-------------0-------|
----10-------------10-|-----10----------0--|-----12--------------|
-8--------------------|-12-----------------|-12------------------|
14 15 16
-8--------13--8---|-8-----7-----5------|-8-----------------|
----10----10------|-6-----------6--8---|-6-----------5-----|
--------------10--|----------7--5--10--|-------------5-----|
--------------7---|----4--5--------9---|-------7--5-----5--|
------------------|--------------------|----9--------------|
------------------|-3------------------|-8-----------------|
17 18 19
-8---------------7--|-15--------------13---------|-13--------------12--11-|
-------5------8-----|---------13----------12--13-|-10---------------------|
----------5---------|-----14------14--14---------|---------10------12--11-|
----5---------------|-0--------------------------|-----10------10---------|
-7------------------|----------------------------|-10---------------------|
--------------------|----------------------------|------------------------|
20 21 22
-12------------------|-7-----------7----------|-7-----------8--7--10--8-|
---------------------|-8-----8--5--8-----8--4-|------8--10--8--8--8---8-|
-12-----------9------|----4-----------4-------|---7--7--8---8--7--10--8-|
-------7---------10--|------------------------|------9--10--------------|
----9-----10---------|-7-----------6----------|-5-----------------------|
-8-------------------|------------------------|-------------------------|
23 24 25
-7-----------5------|-3------------------|-10------------13--12---|
-7-----5-----7------|-0--------0---------|---------------10-------|
----6-----7--5------|-------------2--0---|-10----------------12---|
--------------------|-------0------------|--------7---------------|
-5--------------5---|----4---------------|-----9-----10-----------|
--------------------|-3------------------|-8----------------------|
26 27 28
-8------------------|-------------8--7---|-12------------------|
-5-----------5------|-9-----------5------|-9-----------10--13--|
----------------5---|-7-----5--------7---|----------7----------|
-------7--5---------|--------------------|-------9-----10------|
----9---------------|----7-----7---------|-0--7------------12--|
-8------------------|-0------------------|---------------------|
29 30 31
-8------------10------|-----13-----------12--8--|-6--4--3------|
----------------------|-----12---------------9--|-8--6--6------|
-10--------7----------|----------------------10-|-8--5--5--4---|
-----6--7-----10-9--7-|-----------7------10-----|----3--5------|
--------------10------|-10-----9-----10------11-|-6------------|
-10-------------------|-----8-------------------|----------3---|
32 33
-1-----------0-----------|------------------|-1--0-------------|
-0-----------1-----------|-повторить-такты--|-0--1-------------|
-------------------2--0--|-с 25 по 31-------|-1--0-------------|
----------0-----4--------|------------------|------------------|
-3-----------3-----------|------------------|-3----------------|
----2--3-----------------|------------------|------------------|
34 35 36
----3--8-----------|-10--7------8------7---|-7---5--7------7---|
-1--0--8--6--5-----|-9---6------5--8-------|-7---------8-------|
-0-----------------|--------9---5--7---7---|-8---------7---7---|
-2--0--7-----5-----|-----6---------9-------|-10--------9---4---|
-3-----------------|-8------10-----10------|-----------10------|
-------8-----------|-8----------8----------|-------------------|
37 38 39
-10--7---------------|-2--5-----0--2--3---|-------3--2--0--2------7--|
-8------8-----8------|-3-----3--------3---|-0--2--------------8------|
-9---------9--7------|-2-----4--------4---|-------2-----------7---7--|
--------------7--11--|-0-----4--------2---|-------0-----------9------|
-7-------------------|----3--2------------|-0-----------------10-----|
---------------------|--------------------|--------------------------|
40 41 42
-7---5--7------7----|-10--7---------------|-2--5-----0--2--3---------|
-7---------8--------|-8------8-----8------|-3-----3--------3--0--2---|
-8---------7---7----|-9---------9--7------|-2-----4--------4---------|
-10--------9---4----|--------------7--11--|-0-----4--------2---------|
-----------10-------|-7-------------------|----3--2-----------0------|
--------------------|---------------------|--------------------------|
43 44 45
-2--5---5--5--5--10-|-4--8--13--10--8----|-0-----0--7--5--------2---|
-3--6---6--5-----10-|-5--6--9-------5----|-1--0-----5-----8--7--4---|
-2--7---7--5-----10-|-----------10-------|-2--0-----5-----8-----5---|
-0---------------9--|----7--12------7----|----------4-----7-----2---|
--------------------|-------12-----------|--------------------------|
--------------------|--------------------|----------------7---------|
46 47 48
----2--0--0--------0-|----8--7--7--8--7--|----5--7--3--3---3--4--3--|
-4-----0--0--3--3----|-1--9-----------4--|-------7--5--4---4--5--5--|
----2--0-------------|-2--7--------------|----------4--3---3-----3--|
-------2--3----------|-2-----------------|-4--------2---------------|
---------------------|-0--7-----------8--|-------6-----4---4--3--5--|
----------4----------|-------------------|--------------------------|
49 50 51
-3--2--2------7--7---|-5--7---------8--8-|-7--5--7----------|
-1--------8------7---|-------8---8--8--8-|-7--------8-------|
-2--------7---7--8---|-------7---9-------|-5--------0-------|
-0--------9------10--|-------9---9-------|----------9--5----|
----------10---------|-------10--7-----0-|-5----------------|
---------------------|--------------5----|------------------|
52
--------------------|------------------|----3--8--------10--|
--Повторить-такты---|-Потом-повторить--|-1--0--8--6--5--9---|
--с-8-ого-по-32-ой--|--такты-с-25-ого--|-0------------------|
--------------------|--по-31-и-33------|-2--0--7-----5------|
--------------------|------------------|-3--------------8---|
--------------------|------------------|-------8--------8---|
53 54
-7------8-----1-----|-0--8---------------|
-6------5--1--1--0--|-1--8---------------|
----9---5--2--2-----|-0--9---------------|
-6---------2--0-----|----10--------------|
----10-----0--------|-3------------------|
--------8--------3--|--------------------|]
Документ
Категория
Ноты, аккорды
Просмотров
5
Размер файла
9 Кб
Теги
пелегария, анданте, албениз, исаак
1/--страниц
Пожаловаться на содержимое документа