close

Вход

Забыли?

вход по аккаунту

?

Алексин - Шалава

код для вставкиСкачать
Шалава
Вступление:[e|-----3-2-0--------------------------------|
B|-----0-0-----3-1-0---3-1-0----------------|
G|---0-------0-------0--------0---2--0------|
D|------------------------------------------|
A|---------3---------------2----------------|
E|-0---------------3------------------------|
e|-----3-2-0-------------------3-2-0--------|
B|-----0-0-----3-1-0---3-1-0---0-0----------|
G|---0-------0-------0-------2--------------|
D|------------------------------------------|
A|---------3---------------2----------------|
E|-0---------------3---------------0--------|]
Перебор: <Em C G>
[e|--------0------------0---------------3------------3--2--0--------|
B|--------0------------1---------------3------------0--0--0--------|
G|-----0-----0------0-----0---------0-----0------------------------|
D|-----------------------------------------------------------------|
A|--2------------3-----------------------------0-------------------|
E|-------------------------------3---------------------------------|
> Em C G
e|--------0------------0---------------3------------3--2--0--------|
B|--------0------------1---------------3------------0--0--0--------|
G|-----0-----0------0-----0---------0-----0------------------------|
D|-----------------------------------------------------------------|
A|--2------------3-----------------------------0-------------------|
E|-------------------------------3---------------------------------|
> C D G H7
e|-------0-------------2--------------3-------------2--------------|
B|-------1-------------3--------------3-------------4--------------|
G|-----0---0--------2-----2---------0---0--------2-----2-----------|
D|---------------0-------------------------------------------------|
A|--3---------------------------3----------------------------------|
E|--------------------------------------------2--------------------|]
>Em С G H7
(1)Малолетние шалавы
>Em С G H7
На тусовку собрались
>C D G
Мнутся на ногах костлявых
> H7 Em H7
Все изрядно нажрались
(2)В угол бросили тетрадки
Было к вечеру у них
Две дешевых шоколадки
Пять бутылок на троих
(3)У подруг заняли шмоток
И напудрили носы,
А одна из них надела
Даже чистые трусы
(4)А на центре иномарки
Тут идет вечерний съем
И подружки завалили
Прямо в тачку все втроем
Соло:[e|-3-2-0---------------------2--0-|
B|-------3-1-0--3-0-------4-------|
G|-------------------2-4----------|
D|--------------------------------|
A|--------------------------------|
E|--------------------------------|]
(5)И поехали кататься
Неизвестно даже с кем
Девкам главное догнаться
Остальное без проблем
(6)Где-то в загородной бане
Телки водку будут жрать
На столе стуча ногами
Танцы для братвы плясать
(7)Вот такая вот прогулка
На машине с ветерком
А к утру косяк задолбим
Завтра в школу не пойдем.
>G H7 Em C G
Концовка:Завтра в школу не пойдёоо-оо-о-ом
Завтра в школу не пойдём
Завтра в школу не пойдёоо-оо-о-ом
Завтра в школу не пойдём
Документ
Категория
Ноты, аккорды
Просмотров
10
Размер файла
3 Кб
Теги
алексин, шалава
1/--страниц
Пожаловаться на содержимое документа