close

Вход

Забыли?

вход по аккаунту

?

АлисА - Дурак и солнце

код для вставкиСкачать
Дурень (1997), Пляс Сибири на берегах Невы (1998)
Дурак и солнце
!(К. Кинчев)
Вступление:[--0-3-5---3-5-3----------------------3--------------------------
------------------5-3-5--------3-5-6---5------------------------
-----------------------------5-------------4---2-0-2------------
-------------------------------------------------------2p0h2----
-------------------------------------------------------------0--
----------------------------------------------------------------
------------------------------0-3-5---3-5-3---------------------
----------------------------------------------5-3-5-------------
------2---4-2-4---5-4-5-----------------------------------------
--2-5-----------------------------------------------------------
----------------------------------------------------------------
----------------------------------------------------------------]
> Dm
(1)Hе бог весть, черти как
> F
Жил на свете дурак
> Dm G Am
Без царя в голове, сам как на ладони
В тех краях, где угар,
Голод, мор, да пожар,
Где дым стада облаков по земле гонит.
Так он в копоти жил,
Hе петлял, не кружил.
Верой-правдой служил, ветру настежь душу.
Как солнце нашел,
Да по звездам прошел,
Я тебе расскажу - слушай.
> F C Am
Припев:За тридевять земель неба на краю
> F G Em Am
Пляшет мрак по тpyхлявым пеpекошеным пням,
> F
Да наводит на свет
> Em Am
Серый пепел порчи
>F C Am
А над всей землей солнца нет сто лет
> F G Am
Только ночь, да разорванных звезд клочья
[--------------------------------------------------------------------
--------------------------------------------------------------------
--------------------------------------------------------------------
----5-7---5-7-5-----------------------------------------------------
--7---------------7-5-7---7-5-3/7---0-3-3p0h3---0h3h5~---3h5h7/12---
--------------------------------------------------------------------
---------------------------------------------------------------------
------------------------------------------13-15-17p15p13h15p13h15h17p
--------------------------12>(14)>12---14----------------------------
--------10h12>(14)>12p10---------------------------------------------
--10h12--------------------------------------------------------------
---------------------------------------------------------------------
-------------------------------------15h17p15p12h15-15/17~--15h17p15~
p15p13h15p13h15h17p15p13h15p13h15h17---------------------------------
---------------------------------------------------------------------
---------------------------------------------------------------------
---------------------------------------------------------------------
---------------------------------------------------------------------
--12p10h12~~~--
---------------
---------------
---------------
---------------
---------------]
(2)А народ в тех краях
В мути, в темени чах.
И, не сразу, не вдруг, но забыл, что жил иначе.
В хороводе ночей
Стыло пламя очей
И со временем в тех краях не осталось зрячих.
Лед пустых глазниц, оторопь сердец,
Кривотолков чад гонит дурака по сонной земле,
Где не стынет закат,
Где не плещут зори.
Сколько лет в пути, а сколько впереди,
Как найти да помочь дураку одолеть горе.
>C5/A5 G5/D#5
> A5 E5
Переход:Hа краю небес вырывает бес из волос репьи-мраки.
> A5 E5
Да блюет на свет звездами побед, беса не унять в драке.
> D5 E5
Разметать репьи по краям земли нынче дураку сила
> A5 E5 Am
Да с небес сорвать бешеную тать солнцу помоги, милый!
> Dm
Переход:Кто видел, как по небу плывет огонь,
> Am
Какая в синем радость золотого.
> Dm
Как к водопою спускается белый конь,
> Am
Как отражают солнца свет его подковы.
> Dm
Как в облаках искрятся ресницы зорь,
> Am
Как от росы скользят по травам переливы.
> Dm
Кто видел, как из сердца уходит боль
> Am E
Как хорошо тогда, легко, и как красиво.
(3)Hи в аду, ни в раю,
А на самом краю,
Где землей отрадясь правил бледный почерк
Чтобы свет разметать
Hад землею опять
Бился с мутью дурень три дня и три ночи.
Свет осенних звезд вплел в прядь своих волос,
Солнца луч был в его руке сияньем клинка,
Где кровавый закат
Да златые кольца
Я там тоже был, этот сказ сложил,
А над нами по сей день горит солнце.
[--------------------------------------------------------------------
--------------------------------------------------------------------
--------------------------------------------------------------------
----5-7---5-7-5-----------------------------------------------------
--7---------------7-5-7---7-5-3/7---0-3-3p0h3---0h3h5~---3h5h7/12---
--------------------------------------------------------------------
--------------------------------------15-17-15-----12h15h17p15p12h15
-----------------------10-12-13---/17-------------------------------
---------------9-10-12----------------------------------------------
----10-12>(14)------------------------------------------------------
-12-----------------------------------------------------------------
--------------------------------------------------------------------
p12--12h15p12h15p12--12---------------------------------------------
---15--------------15--15-13-12----12-13-15>(17)----15h17p15p13--12~
--------------------------------14----------------------------------
--------------------------------------------------------------------
--------------------------------------------------------------------
--------------------------------------------------------------------]
![-------------] |
![-------------] | За правильность этого соляка я не ручаюсь,
![--14p12h14---] | ибо быстрая часть представляет просто набор
![-------------] | нот.
![-------------] |
![-------------] |
-
Не бог весть черти-как, жил на свете дурак <Dm F>
Без царя в голове, сам как на ладони < Dm G Am>
В тех краях где угар, голод, мор да пожар,< Dm F>
Где дым стада облаков по земле гонит. <Dm G Am>
Так он в копоте жил, не петлял, не кружил,
Верой-правдой служил ветру настеж душу.
Как он Солнце нашел и по зв здам прошел,
Я тебе расскажу СЛУШАЙ!
Сквозь тридевять земель, небо на краю,< F Am>
Пляшет мрак по трухлявым перекошеным пням < F G E>
Да наводит на свет серый пепел корчи <F G Am>
А над всей землей солнца нет сто лет < F Am>
Только ночь да разорванных звезд клочья < F G Em>
А народ в тех краях в мути темени чах
И не сразу, не вдруг позабыл что жил иначе
В хороводе ночей стыло пламя очей
И со временем в тех краях не осталось зрячих
Лед пустых глазниц, оторопь сердец, кривотолков чад
Гонит дурака по сонной земле
Где не стынет закат, где не пляшут зори
Сколько лет в пути, а сколько впереди
Как найти дураку да помочь одолеть ГОРЕ...
На краю небес взрывает бес из волос репьи-мраки,
Да блю т на свет звездами побед, беса не унять в драке.
Разметать репьи по краям земли, нынче дураку сила.
Да с небес сорвать бешеную тать, солнцу помоги, милый!
КТО видел как по небу плывет огонь, какая в синем радость золотого <Am Dm Am>
Как к водопою спускается белый конь, как отражает солнца луч его подковы
Кто видел как искрятся ресницы зорь, как от росы скользят по травам переливы
Кто видел как из сердца еходит боль, как хорошо, легко и как красиво
Не в аду не в раю, а на самом краю
Где зимой отрадясь правил бледный почерк
Чтобы сны разметать над землею опять
Бился с мутью дурень три дня и три ночи
Свет весенних звезд пл л прядь твоих волос
Солнца луч был в его pуке как сиянье клинка
Где трава высока, да злотые кольца
И я там тоже был и этот сказ сложил
А над нами по сей день горит СОЛНЦЕ....
-
Вступление:1)-0-3-5---3-5-3-------------------3-----------------
2)-----------------5-3-5-----3-5-6---5-3-5-----------
3)-------------------------5---------------4---2-0-2-
1)-------------------------0-3-5---3-5-3---------
2)-----------------------------------------5-3-5-
3)-----2---4-2-4---5-4-5-------------------------
4)-2-5-------------------------------------------
> Dm
(1)Hе бог весть, черти как
> F
Жил на свете дурак
> Dm G Am
Без царя в голове, сам как на ладони
В тех краях, где угар,
Голод, мор, да пожар,
Где дым стада облаков по земле гонит.
(2)Так он в копоти жил,
Hе петлял, не кружил.
Верой-правдой служил, ветру настежь душу.
Как солнце нашел,
Да по звездам прошел,
Я тебе расскажу - слушай.
> F C Am
Припев:За тридевять земель неба на краю,
> F G Em Am
Пляшет смерть по тpyхлявым пеpекошеным пням,
> F
Да наводит на свет
>Em Am
Серый пепел порчи.
>F C Am
А над всей землей Солнца нет сто лет,
> F G Am
Только ночь, да разорванных звёзд клочья.
Проигрыш:4)---5-7---5-7-5----------------------------- \
5)-7---------------7-5-7---7-5-3---2-------0- } 2 раза
6)-------------------------------------3-0--- /
(3)А народ в тех краях
В мути, в темени чах.
И, не сразу, не вдруг, но забыл, что жил иначе.
В хороводе ночей
Стыло пламя очей
И со временем в тех краях не осталось зрячих.
Припев:Лед пустых глазниц, оторопь сердец,
Кривотолков чад гонит дурака по сонной земле,
Где не стынет закат,
Где не плещут зори.
Сколько лет в пути, а сколько впереди,
Как найти да помочь дураку одолеть горе.
>A5 E5
(4)Hа краю небес вырывает бес из волос репьи-мраки.
>A5 E5
Да блюет на свет звездами побед, беса не унять в драке.
>D5 E5
Разметать репьи по краям земли нынче дураку сила
>A5 E5 Am
Да с небес сорвать бешеную тать солнцу помоги, милый!
> Dm
(5)Кто видел, как по небу плывёт огонь,
> Am
Какая в синем радость золотого.
> Dm
Как к водопою спускается белый конь,
> Am
Как отражают солнца свет его подковы.
> Dm
Как в облаках искрятся ресницы зорь,
> Am
Как от росы скользят по травам переливы.
> Dm
Кто помнит, как из сердца уходит боль
> Am E
Как хорошо когда, легко, и как красиво.
(6)Hи в аду, ни в раю,
А на самом краю,
Где землей отрадясь правил бледный почерк.
Чтобы свет разметать
Hад землею опять,
Бился с мутью дурень три дня и три ночи.
Припев:Свет осенних звезд вплел в прядь своих волос,
Солнца луч был в его руке сияньем клинка,
Где кровавый закат
Да златые кольца.
Я там тоже был, этот сказ сложил,
А над нами по сей день горит солнце.
!Вступление
-
> D#m
Hе бог весть, черти как
> F#
Жил на свете дурак
> D#m G# Bm
Без царя в голове, сам как на ладони
> D#m
В тех краях, где угар,
> F#
Голод, мор, да пожар,
> D#m G# Bm
Где дым стада облаков по земле гонит.
Так он в копоти жил,
Hе петлял, не кружил.
Верой-правдой служил, ветру настежь душу.
Как солнце нашел,
Да по звездам прошел,
Я тебе расскажу - слушай.
> F# C# Bm
За тридевять земель неба на краю
> F# G# Fm Bm
Пляшет мрак по тpyхлявым пеpекошеным пням,
> F#
Да наводит на свет
> Fm Bm
Серый пепел порчи
>F# C# Bm
А над всей землей солнца нет сто лет
> F# G# Bm
Только ночь, да разорванных звезд клочья
А народ в тех краях
В мути, в темени чах.
И, не сразу, не вдруг, но забыл, что жил иначе.
В хороводе ночей
Стыло пламя очей
И со временем в тех краях не осталось зрячих.
Лед пустых глазниц, оторопь сердец,
Кривотолков чад гонит дурака по сонной земле,
Где не стынет закат,
Где не плещут зори.
Сколько лет в пути, а сколько впереди,
Как найти да помочь дураку одолеть горе.
> Bm F
Hа краю небес вырывает бес из волос репьи-мраки.
> Bm F
Да блюет на свет звездами побед, беса не унять в драке.
> D#m F
Разметать репьи по краям земли нынче дураку сила
> Bm F
Да с небес сорвать бешеную тать солнцу помоги, милый!
> D#m
Кто видел, как по небу плывет огонь,
> Bm
Какая в синем радость золотого.
> D#m
Как к водопою спускается белый конь,
> Bm
Как отражают солнца свет его подковы.
> D#m
Как в облаках искрятся ресницы зорь,
> Bm
Как от росы скользят по травам переливы.
> D#m
Кто видел, как из сердца уходит боль
> Bm F
Как хорошо тогда, легко, и как красиво.
Hи в аду, ни в раю,
А на самом краю,
Где землей отрадясь правил бледный почерк
Чтобы свет разметать
Hад землею опять
Бился с мутью дурень три дня и три ночи.
Свет осенних звезд вплел в прядь своих волос,
Солнца луч был в его руке сияньем клинка,
Где кровавый закат
Да златые кольца
Я там тоже был, этот сказ сложил,
А над нами по сей день горит солнце.
Документ
Категория
Ноты, аккорды
Просмотров
12
Размер файла
14 Кб
Теги
алиса, дурака, солнце
1/--страниц
Пожаловаться на содержимое документа