close

Вход

Забыли?

вход по аккаунту

?

АлисА - Дурак

код для вставкиСкачать
Чёрная метка (1994), *АЛИСА НА ШАБОЛОВКЕ* (1995), Пляс Сибири на берегах Невы (1998)
Дурак
Музыка:П.С. Самойлов
Слова:П.С. Самойлов/К. Кинчев
!Intro (4 x lead 1)
!lead 1 end of lead 1
> Em/G C G Am Em
[e|-3--2--0-----0----0-------------------------------------------|
H|----------3----------3--0--------1--0-------------------------|
G|---------------------------------------2--0-------------------|
D|---------------------------------------------2----------------|
A|--------------------------------------------------------------|
E|--------------------------------------------------------------|
| |
e|--------------------------------------------------------12(---|
H|-----------------------------0--------------------0-----12)---|
G|--------------------------0--------------------0--------12'---|
D|--------------------------------------------------------------|
A|--------------------------------------------------------------|
E|--------------------------------------------------------------|]
! Harm.
> Em Hm
> e e g e d e g f#
Как-то раз по вес-не ран-ней
> g g a g f# g b a
По- ма-ни- ла по-жар пти-ца
> b b d^ b a g g f#
На до-ро -ги зем-ли дур-ня
> e e d d f# B
К солн-цу тро-пы ис-кать
!2 x lead 1
Hад землей городов крыши,
А над крышами - дым, сажа,
А над сажей небес выше -
Солнца белая рать.
!lead 2
> Em Em Am Em Am C Hm Em
[e|-7-5-7-5-7------------------------------------------------------|
H|---------------------10-8-10--8-7-8--7-5-7----------------------|
G|--------------------------------------------9-7-9--7-5-7--4-2-4-|
D|----------------------------------------------------------------|
A|----------------------------------------------------------------|
E|----------------------------------------------------------------|
| |
e|---------12----12-----------------------------------------------|
H|------------12----12---И так далее все время--------------------|
G|----------------------------------------------------------------|]
! ^^^^^^^^^^^|-Флажолеты (Harm)
> Em Em Am Em Am C Hm Em
[e|--------------------------------------------------------------|
H|--------------------------------------------------------------|
G|-4-2-4-2-4---2-0-2--------------------------------------------|
D|---------------------5-4-5--4-2-4-----------------------------|
A|-----------------------------------7-5-7---5-3-5--2-0-2-------|
E|--------------------------------------------------------------|]
Сколько горя в нужде дурень мыкал,
Износил сапогов сотни,
А рубах изодрал столько,
Сколько трав истоптал.
По лесам собирал сказки
Да учился у птиц песням,
Веселил городов толпы,
Hо ближе к Солнцу не стал.
> Am Hm
[---0---0---0---0---0---0---2---2-]
Ох, тропинки-лесенки апликатура [-0-0-0-0-0-0-0-0-1-1-1-1-3-3-3-3-]
<Am Hm> такая: [-0---0---0---0---2---2---4---4---]
Прямо по земле в небеса! [---------------------------------]
Как найти, увидеть [---------------------------------]
Да не проглядеть, не потерять. [---------------------------------]
>A E
А у неба радости.
>E A H E
Только Солнцу глянешь утром в глаза,
>C Hm
Отвернешь, укроешься
>C
Да слезою вспыхнешь опять...
Опять! Вот так! В сказку словом бъемся
!Riff A
|-----------------------12-12-12------------------------------|
|-----------------------12-12-12------------------------------|
|-----------------------12-12-12------------------------------|
|-------------------------------------------------------------|
|-------------------------------------------------------------|
|-0---0-3--5--6--5--3--0-----------0---0-3--5--6--5--3--0-----|
Вот так! Вот, Смеемся!
! End of Riff A
|-----------------------12-12-12----------------------------------|
|-----------------------12-12-12----------------------------------|
|-----------------------12-12-12----------------------------------|
|-----------------------------------------------------------------|
|-----------------------------------------------------------------|
|-0---0-3--5--6--5--3--0-------------0---0-3--5--6--5--3--7-------|
Ходит ду-рак.... по земле босиком
|----------------------------------------------------------------------|
|----------------------------------------------------------------------|
|--------------------------------------------------2-2-----------------|
|-----------2-----------0----------------------4-4-0-0-----------------|
|-----------------------------------4----------2-2---------------------|
|--------------3-2-0-------3-2-0-------3-2-0---------------------------|
|-----PM |-----PM |------PM
Берегами рек.... да опушкой леса
|----------------------------------------------------------------------|
|----------------------------------------------------------------------|
|----------------------------------------------------------------------|
|-----------2-----------0----------------------4-4-2-2-----------------|
|-----------------------------------4----------2-2-0-0-----------------|
|--------------3-2-0-------3-2-0-------3-2-0---------------------------|
|-----PM |-----PM |------PM
Веселит дурак почтенный народ
|--------------------------------------------|
|--------------------------------------------|
|--------------------------------------------|
|-7-7-7---99-99-9----4--4---4-4-4---4-4-4----|
|-5-5-5---77-77-7----2--2---2-5-2---2-5-2----|
|--------------------------------------------|
Все да по площадям, городам.
|--------------------------------------------|
|--------------------------------------------|
|--------------------------------------------|
|--7--7--7---99-99-9---4-4--4-4-4------------|
|--5--5--5---77-77-7---2-2--2-5-2---2--------|
|-------------------------------------5-3----|
И ты, как он, проходишь по земле.
!Riff B End of Riff B
|-------------------------------------------------------------|
|-------------------------------------------------------------|
|-------------------------------------------------------------|
|-----------------2-----------------------------2-------------|
|---------5--4--------0-1-2-------------5--4--------0-1-2---2-|
|---0-----------------------3-----0-----------------------3---|
PM--------------------------------------------------------|
Ему, как всем, тебе, как всем, от рода по судьбе.
! (Вместе с Riff B)
Иди своей дорогой! Ищи свою тропу!
! (Вместе с Riff B)
> H5
Hайдет дурак, найдешь и ты. Даст Бог, и я найду!
Вот так!!! В сказку словом бьемся... Вот так!!! Смеемся-а.
! (Вместе Riff A)
|-------12---------7-----------------------------------------|
|------------------------------------------------------------|
|------------------------------------------------------------|
|------------------------------------------------------------|
|------------------------------------------------------------|
|------------------------------------------------------------|
! Harm Harm
Это только присказка, а сказка бежит речкой...
Да дела не идут скоро.
Ближе к Солнцу не стал дурень,
Hо стал теплее в сердцах.
Где бы он ни сложил песню,
[|--------5--2-------------------|]
[|-----3-------------------------|]
[|--4----------------------------|]
Где бы ни проросло Слово,
[|--5----------------------------|]
[|-----8--7----------------------|]
[|-------------------------------|]
Стелет в небо из звезд тропы
По горячим следам.
Стелет сквозь городов крыши,
[|-------------------------------|]
[|----------3--------------------|]
[|--0--0--4---4------------------|]
Выше крыш да сквозь дым, сажу
[|-------------------------------|]
[|--12-10------------------------|]
[|--------9----------------------|]
Стелет даже небес выше
[|--0----------------------------|]
[|-----3-------------------------|]
[|--------4----------------------|]
Солнца белая рать.
!lead 2
Вот что сталось весной ранней.
[|--------2----------------------|]
[|-----3-------------------------|]
[|--4----------------------------|]
Заманила пожар-птица
Hа дороги Земли дурня
[|--3--2-------------------------|]
[|--------3----------------------|]
[|-------------------------------|]
К Солнцу тропы искать...
|-------0----------------------|
|------0-----------------------|
|-----0------------------------| + 2 x lead 1
|----2-------------------------|
|---2--------------------------|
|--0---------------------------|
-
!бас паpтия для вступления.
| < G Am Em>
|----------------------------------------------------------------|---------
|----------------------------------------------------------------|---------
|----------------------2---2-2---3-2-0---------2------2^0--------|---------
|----------------3---3-----------------3-0---0------------0------|---------
> Em G Am Em
|-------0--------------------------------------------------------|---------
|---------4-2-0-2--2----------------------------------h-p-h-p-h--|---------
|----------------------2---2-2---3-2-0---------2---2-0^2^0^2^0^2-|---------
|--------------------3-----------------3-0---0-------------------|---------
|-------0--------------------------------------------------------|---------
|---------4-2-0-2--2---------------------------------------------|---------
|----------------------2---2-2---3-2-0---------2-----------2^0---|---------
|--------------------3-----------------3-0---0-----------------0-|---------
|-------0--------------------------------------------------------|----|
|---------4-2-0-2--2---------------------------------------------|----|
|----------------------2---2-2---3-2-0---------2----0------------|----|
|--------------------3-----------------3-0---0---------3--0------|----|
-
|: <C G Am Em> :|
>Em
Как-то раз по весне ранней
Поманила пожар-птица
По дорогам Земли дурня
К Солнцу тропы искать.
|: <C G Am Em> :|
>Em
Над землсй городов крыши,
А над крышами дым-сажа,
А над сажей небес выше -
Солнца белая рать.
|: <Em Am Em Am C Hm Em> :|
>Em
Сколько дурень в нужде горе мыкал,
Износил сапогов сотни,
А рубах изодрал столько, IV <E/G#>
Сколько трав истоптал. [|-*-|---|---|---|]
По земле собирал сказки [|-*-|-*-|---|---|]
Да учился у птиц песням, [|-*-|---|---|---|]
Веселил городов толпы, [|-*-|---|-*-|---|]
Но ближе к Солнцу не стал. [|-*-|---|---|-*-|]
[|-*-|---|---|---|]
>Em Am Hm
Ох, тропинки-лесенки прямо по земле в небеса!
> Em Am Hm
Как найти, увидеть, да не проглядеть, не потерять.
>A E E/G# A H E
А у неба радости, только Солнцу глянешь в глаза,
>C Hm C
Отвернсшь, укроешься, да слезою вспыхнешь опять!
> Em
Опять!
>E5
Вот так!
В сказку словом льсмся.
Вот так!
>H5
Смесмся!
> E5 D5 C#5 H5
Ходит дурак по земле босиком
> E5 D C#5 H5 A5
Берегами рек да опушкой леса,
> D5 E5 H5
Веселит дурак почтенный народ
> D5 E5 H5
Всс да по площадям городов.
> E5
И ты, как он, проходишь по земле.
Ему, как всем, тебе, как всем,
От рода по судьбе.
Иди своей дорогой! Ищи свою тропу!
> H5
Найдст дурак, найдсшь и ты.
> E5
Даст Бог, и я найду!
> E5
Вот так! В сказку словом льсмся.
> H5
Вот так! Смесмся!
> E5
Это только присказка,
А сказка бежит речкой.
Да дела не идут скоро.
Ближе к Солнцу не стал дурень,
Но стал теплее сердцам.
Где бы он не сложил песню,
Где бы не проросло Слово,
Стелет в небо из звсзд тропы
По горячим следам.
Стелет сквозь городов крыши,
Выше крыш, да сквозь дым-сажу
Стелет даже небес выше,
Солнца белая рать.
>|: <Em Am Em Am C Hm Em> :|
>Em
Вот что сталось весной ранней.
Заманила пожар-птица
На дороги Земли дурня
<E Em> |: <C G Am Em> :|
К Солнцу тропы искать...
-
>Em7 G D
Как-то раз по весне ранней
Поманила пожар-птица
По дорогам Земли дурня
К Солнцу тропы искать.
Над землёй городов крыши,
А над крышами дым-сажа,
А над сажей небес выше -
Солнца белая рать.
Сколько дурень в нужде горе мыкал,
Износил сапогов сотни,
А рубах изодрал столько,
Сколько трав истоптал.
По земле собирал сказки
Да учился у птиц песням,
Веселил городов толпы,
> Em7
Но ближе к Солнцу не стал.
>Em7 Am7 Hm7
Ох, тропинки-лесенки прямо по земле в небеса!
> Em7 Am7 Hm7
Как найти, увидеть, да не проглядеть, не потерять.
>A E E A H E
А у неба радости, только Солнцу глянешь утром глаза,
>C Hm C
Отвернёшь, укроешься, да слезою вспыхнешь опять!
> Em
Опять!
>Em
Вот так!
В сказку словом льёмся.
Вот так!
>Em
Смеёмся!
>Em G A
Ходит дурак по земле босиком
>H Em G A H
Берегами рек да опушкой леса,
>D E H
Веселит дурак почтенный народ
>D E H
Все да по площадям городов.
> E5
И ты, как он, проходишь по земле.
Ему, как всем, тебе, как всем,
От рода по судьбе.
Иди своей дорогой! Ищи свою тропу!
> H5
Найдёт дурак, найдёшь и ты.
> E5
Даст Бог, и я найду!
> E5
Вот так! В сказку словом льёмся.
> H5
Вот так! Смеёмся!
> E5
Это только присказка,
А сказка бежит речкой.
Да дела не идут скоро.
Ближе к Солнцу не стал дурень,
Но стал теплее сердцам.
Где бы он не сложил песню,
Где бы не проросло Слово,
Стелет в небо из звёзд тропы
По горячим следам.
Стелет сквозь городов крыши,
Выше крыш, да сквозь дым-сажу
Стелет даже небес выше,
Солнца белая рать.
Вот что сталось весной ранней.
Заманила пожар-птица
На дороги Земли дурня
К Солнцу тропы искать...
-
Дурак
!(К. Кинчев, А. Шаталин - К. Кинчев)
>Fm C
Как-то раз по весне ранней
>Fm C
Поманила пожар-птица
>Fm C
На дороги Земли дурня
>Fm
К Солнцу тропы искать.
>C# G# Bm Fm
Над землей городов крыши,
А над крышами дым-сажа,
А над сажей небес выше -
Солнца белая рать.
>Fm Bm Fm Bm C# Cm Fm
Сколько горе в нужде дурень мыкал,
Износил сапогов сотни,
А рубах изодрал столько,
Сколько трав истоптал.
По лесам собирал сказки
Да учился у птиц песням,
Веселил городов толпы,
Но ближе к Солнцу не стал.
>Fm Bm Cm
Ох, тропинки-лесенки прямо по земле в небеса!
> Fm Bm Cm
Как найти, увидеть, да не проглядеть, не потерять.
>B F C# B C F
А у неба радости, только Солнцу глянешь утром в глаза,
>C# Cm C# Fm
Отвернешь, укроешься, да слезою вспыхнешь опять! Опять!
> Fm
Вот так! В сказку словом льемся.
> C
Вот так! Смеемся!
> Fm D# D C
Ходит дурак по земле босиком
> Em D# D C B
Берегами рек да опушкой леса,
> D# Fm C
Веселит дурак почтенный народ
> D# Fm C
Все да по площадям городов.
> Fm
И ты, как он, проходишь по земле.
Ему, как всем, тебе, как всем, от рода по судьбе.
Иди своей дорогой! Ищи свою тропу!
> C Fm
Найдет дурак, найдешь и ты. Даст Бог, и я найду!
Вот так! В сказку словом льемся.
Вот так! Смеемся!
Это только присказка, а сказка бежит речкой.
Да дела не идут скоро.
Ближе к Солнцу не стал дурень,
Но стал теплее сердцам.
Где бы он не сложил песню,
Где бы не проросло Слово,
Стелет в небо из звезд тропы
По горячим следам.
Стелет сквозь городов крыши,
Выше крыш, да сквозь дым-сажу
Стелет даже небес выше,
Солнца белая рать.
>Fm Bm Fm Bm C# Cm Fm
> Fm C
Вот что сталось весной ранней.
>Fm C
Заманила пожар-птица
>Fm C
На дороги Земли дурня
> F Fm C# G# Bm Fm
К Солнцу тропы искать...
Документ
Категория
Ноты, аккорды
Просмотров
12
Размер файла
18 Кб
Теги
алиса, дурака
1/--страниц
Пожаловаться на содержимое документа