close

Вход

Забыли?

вход по аккаунту

?

АлисА - Звери

код для вставкиСкачать
Изгой (2005)
Звери
!(К. Кинчев)
> Am
Расплодилась сволочь на родной земле,
Нелюдь в камуфляже без лица и глаз.
Взрывами диктует свою волю мне,
Ужасом террора гнет нас.
Кровью захлебнулись сводки новостей,
Как зверье глумится да скалит пасть.
Именем Аллаха убивать детей -
Может только полная мразь.
Звери они - не люди!
Звери они - не люди!
Звери они - не люди!
Звери они - не люди!
> Am B G Am
Черных дней череда.
> B G Am
Солью слез мстит вода
> B G Am
Тем, кто жил кое-как.
> B G Am
Быть может, это горе нас соберет в кулак.
Звери они - не люди!
Звери они - не люди!
Звери они - не люди!
Звери они - не люди!
Взрывы самолетов, да захваты школ...
Вот не полный перечень "славных" дел.
У зверя вместо Бога – чека да ствол.
Цепь да клетка зверю в удел.
Звери они - не люди!
Звери они - не люди!
Черных дней череда.
Солью слез мстит вода
Тем, кто жил кое-как.
Быть может, это горе нас соберет в кулак.
Звери они - не люди!
Звери они - не люди!
Звери они - не люди!
Звери они - не люди!
-
[E||-----------------------------|-----------------------------|
B||-----------------------------|-----------------------------|
G||-----------------------------|-----------------------------|
D||-----------------------------|-----------------------------|
A||----------3-------7--6--5----|----------3-------7--6--5----|
E||--3-5-5-5---5-5-5------------|--3-5-5-5---5-5-5------------|
-----------------------------|-----------------------------|------------------|
-----------------------------|-----------------------------|------------------|
-----------------------------|-----------------------------|------------------|
-----------------------------|-----------------------------|------------------|
----------3-------7--6--5----|----------3-------7--6--5----|------------------|
--3-5-5-5---5-5-5------------|--3-5-5-5---5-5-5------------|------------------|
------------------|---------------------------|----------------------------|
------------------|---------------------------|----------------------------|
------------------|---------------------------|----------------------------|
------------------|---------------------------|----------------------------|
------------------|--7-7-7----7-7-7----7-7-7--|---8-8-8----8-8-8----8-8-8--|
------------------|--5-5-5----5-5-5----5-5-5--|---6-6-6----6-6-6----6-6-6--|
---------------------------|---------------------------|
---------------------------|---------------------------|
---------------------------|---------------------------|
---------------------------|---------------------------|
--5-5-5----5-5-5----5-5-5--|--7-7-7----7-7-7----7-7-7--|
--3-3-3----3-3-3----3-3-3--|--5-5-5----5-5-5----5-5-5--|
---------------------------|----------------------------|
---------------------------|----------------------------|
---------------------------|----------------------------|
---------------------------|----------------------------|
--7-7-7----7-7-7----7-7-7--|---8-8-8----8-8-8----8-8-8--|
--5-5-5----5-5-5----5-5-5--|---6-6-6----6-6-6----6-6-6--|
---------------------------|---------------------------||
---------------------------|---------------------------||
---------------------------|---------------------------||
---------------------------|---------------------------||
--5-5-5----5-5-5----5-5-5--|--7-7-7----7-7-7----7-7-7--||
--3-3-3----3-3-3----3-3-3--|--5-5-5----5-5-5----5-5-5--||]
Документ
Категория
Ноты, аккорды
Просмотров
4
Размер файла
4 Кб
Теги
звери, алиса
1/--страниц
Пожаловаться на содержимое документа