close

Вход

Забыли?

вход по аккаунту

?

АлисА - Красное на чёрном

код для вставкиСкачать
БлокАда (1987), Шабаш (1991), Пляс Сибири на берегах Невы (1998)
Красное на чёрном
!(К. Кинчев)
>Am
(1)Шаг за шагом, босиком по воде,
>G
Времена, что отпущены нам,
>F
Солнцем в праздник, солью в беде
>E
Души резали напополам.
По ошибке? Конечно, нет!
Награждают сердцами птиц,
Тех, кто помнит дорогу наверх,
И стремится бросится вниз.
Нас вели поводыри-облака,
За ступенью - ступень, как над пропастью мост,
Порою нас швыряло на дно,
Порой поднимало до самых звезд.
> Am G F E
Припев:Красное на черном!
(2)Шаг за шагом, сам черт не брат,
Солнцу время, Луне часы,
Словно в оттепель снегопад,
По земле проходили мы.
Нас величали черной чумой,
Нечистой силой честили нас,
Когда мы шли, как по передовой,
Под прицелом пристальных глаз.
Будь что будет! Что было, ЕСТЬ!
Смех да слезы, а чем еще жить?
И если песню не суждено допеть,
Так хотя бы успеть сложить.
!Припев
(3)А на Кресте не спекается кровь,
Гвозди так и не смогли заржаветь,
И как эпилог - все та же любовь,
А как пролог - все та же смерть.
Может быть, это только мой бред,
Может быть, жизнь не так хороша,
Может быть, я не выйду на свет,
Но я летал, когда пела душа,
И в груди хохотали костры,
И неслись к небесам по радуге слез.
Как смиренье - глаза Заратустры,
Как пощечина - Христос!
!Припев
>Am G
Концовка:Красное на черном!
>F E
День встает, смотри, как пятится ночь.
Красное на черном!
Звезды, прочь!
Красное на черном!
На Кресте не спекается кровь.
Красное на черном!
И эпилогом - любовь.
Красное на черном!
!Припев
-
!Гармония ("/" означает -&gt; два раза, т.е. "<Dm/>" = "<Dm>|<Dm>")
!Тема -&gt; 4/4 -> | <Dm/> |< Bb/> | <C/> | <A/> |
!Припев -&gt; | <Dm> | <Gm> | <F> | <C> | <Dm> | <Gm> | <A/> |
!Соло -&gt; (То же, что и в теме) -&gt; | <Dm/> | <Bb/> | <C/> | <A/> |
!Bass
Teмa:< Dm Bb C A>
[G|--------------------------------------------------------------------------
D|--------------------------------------------------------------------------
A|-5-5-5-5-5-5-5-5----------------3-3-3-3-3-3-3-3-0-0-0-0-0-0-0-0-----------
E|-----------------6-6-6-6-6-6-6-6------------------------------------------]
Припев:< Dm Gm F C>
[G|--------------------------------------------------------------------------
D|-----------------3-3-3-3--------------------------------------------------
A|-5-7-8-5-----------------3-3-3-3------------------------------------------
E|---------3-5-6-3----------------------------------------------------------
> Dm Gm A
G|--------------------------------------------------------------------------
D|-----------------7-7-----7-7-----7-7-----7-7------------------------------
A|-5-7-8-5-------------5-5-----5-5-----5-5-----5-5--------------------------
E|---------3-5-6-3----------------------------------------------------------]
!Гитара 1 (Гитара 2 может играть то-же самое, пока ей нечего делать)
Tema:< Dm Bb C A>
[e|--------------------1-1-0-0--1-1-0-0--------------------------------------
B|--------------------3-3-3-3--3-3-3-3--5-5-5-6--5-5-5-6--------------------
G|--7-7-7-5--7-7-7-5--3-3-3-3--3-3-3-3--5-5-5-5--5-5-5-5--------------------
D|--7-7-7-5--7-7-7-5--3-3-3-3--3-3-3-3--5-5-5-5--5-5-5-5--------------7-----
A|--5-5-5-3--5-5-5-3--------------------3-3-3-3--3-3-3-3------4-4-7-7-------
E|--------------------------------------------------------5-5---------------]
Припев: <Dm Gm F C Dm Gm A> (Riff A - два раза)
[e|--------------------------------------------------------------------------
B|-------------------------5--6-5--------------------10-10-----10-10--------
G|-7-7-7-7-----------------5--5-5----7-7-7-7--------------------------------
D|-7-7-7-7-5-5-5-5-3-3-3-3-5--5-5----7-7-7-7-5-5-5-5-------7-7-------7-7----
A|-5-5-5-5-5-5-5-5-3-3-3-3-3--3-3----5-5-5-5-5-5-5-5------------------------
E|---------3-3-3-3-1-1-1-1-------------------3-3-3-3------------------------]
!(Красное на черном! Красное на черном!)
!Solo:
!Гитара 1
[e|-------------------
B|-------------------
G|--7-7-7-5--7-7-7-5-
D|--7-7-7-5--7-7-7-5-
A|--5-5-5-3--5-5-5-3-
E|-------------------]
!Гитара 1 держит последний аккорд, пока Гитара 2 играет свое
!вступление, затем играет аккорды, написаные вверху на партии
!Гитары 2 (<D5>, и т.д).
! Гитара 2 (Lead Guitar)
!Вступление к соляку (можно играть без "pull-off", т.е. - 7-6-5):
[e|-------------------
B|-------------------
G|-7p6p5-------------
D|------7p6p5--------
A|-----------7p6p5-3-
E|-------------------]
!Соляк
! +- Два раза
| < D5 Bb>
[e|--------------------------------------------------------
B|---------6----------5----------8----------6-------------
G|-----6-7--------6-7--------6-7--------6-7---------------
D|-6-7--------6-7--------6-7--------6-7-------------------
A|--------------------------------------------------------
E|--------------------------------------------------------]
-+
| Конец1 | Конец второго раза |
< C5 A5 > | | |
[e|-------------------------------6---------|5-------|------------------------|
B|---------8----------6--------------------|--------|-5----------------------|
G|-----6-7--------6-7--------6-7--------6-7|--------|------------------------|
D|-6-7--------6-7--------6-7--------6-7----|--------|------------------------|
A|-----------------------------------------|--------|------------------------|
E|-----------------------------------------|--------|------------------------|]
!Обозначения аккордов из партии первой гитары в соляке:
> D5 Bb C A5
[e| --- -1- --- ---
B| --- -3- -5- ---
G| -7- -3- -5- ---
D| -7- -3- -5- -7-
A| -5- --- -3- -7-
E| --- --- --- -5-]
!Внимание! "<B>" - обозначает русский аккорд "<H>", а "<Bb>" - русский "<B>"!
!(Соответственно играете вместо <Bm> - <Hm> и вместо <Bbm> - <Bm>)
-
>Hm
Шаг за шагом,босиком по воде.
>G
Времена,что отпущены нам,
>A
Солнем в праздник,солью в беде
>F# G
Души резали напополам.
По ошибке? Конечно нет.
Награждают сердцами птиц,
Тех,кто помнит дорогу наверх,
И стремится броситься вниз.
Нас вели поводыри-облака,
За ступенью-ступень,как над пропастью мост,
Порою нас швыряло на дно,
Порой поднимало до самых звезд.
>Hm G A F#
Красное на черном.
Шаг за шагом,сам черт не брат,
Солнцу время,Луне часы,
Словно в оттепель снегопад,
По земле проходили мы.
Нас величали черной чумой,
Нечистой силой честили нас,
Когда мы шли,как по передовой,
Под прицелом пристальных глаз.
Будь что будет,что было и есть,
Смех да слезы,а чем еще жить.
И если песню не суждено допеть,
Так хотя бы успеть сложить.
Красное на черном.
А на кресте не спекается кровь,
Гвозди так и не смогли заржаветь,
И как эпилог-все та же любовь,
А как пролог-все та же смерть.
Может быть,это только мой бред,
Может быть,жизнь не так хороша,
Может быть,я не выйду на свет,
Но я летел,когда пела душа.
И в груди хохотали костры
И неслись к небесам по радуге слез.
Как смиренье-глаза Заратустры,
Как пощечина-Христос.
Красное на черном.
Красное на черном.
-
>C#m
Шаг за шагом, босиком по воде,
>A
Времена, что отпущены нам,
> H
Солнцем в праздник, солью в беде
> G#
Души резали напополам.
По ошибке? Конечно, нет!
Награждают сердцами птиц,
Тех, кто помнит дорогу наверх,
И стремится бросится вниз.
Нас вели поводыри-облака,
За ступенью - ступень, как над пропастью мост,
Порою нас швыряло на дно,
Порой поднимало до самых звезд.
> C#m F#m E H
Красное на черном!
> C#m F#m E G#
Красное на черном!
Шаг за шагом, сам черт не брат,
Солнцу время, Луне часы,
Словно в оттепель снегопад,
По земле проходили мы.
Нас величали черной чумой,
Нечистой силой честили нас,
Когда мы шли, как по передовой,
Под прицелом пристальных глаз.
Будь что будет! Что было, есть!
Смех да слезы, а чем еще жить?
И если песню не суждено допеть,
Так хотя бы успеть сложить.
Красное на черном!
Красное на черном!
А на Кресте не спекается кровь,
Гвозди так и не смогли заржаветь,
И как эпилог - все та же любовь,
А как пролог - все та же смерть.
Может быть, это только мой бред,
Может быть, жизнь не так хороша,
Может быть, я так и не выйду на свет,
Но я летал, когда пела душа,
И в груди хохотали костры,
И неслись к небесам по радуге слез.
Как смиренье - глаза Заратустры,
Как пощечина - Христос!
Красное на черном!
Красное на черном!
> C#m F#m
Красное на черном!
> E H
День встает, смотри, как пятится ночь.
> C#m F#m
Красное на черном!
> E G#
Звезды, прочь!
> C#m F#m
Красное на черном!
> E H
На Кресте не спекается кровь.
> C#m F#m
Красное на черном!
> E G#
И эпилогом - любовь.
Красное на черном!
Красное на черном!
Документ
Категория
Ноты, аккорды
Просмотров
19
Размер файла
10 Кб
Теги
красной, алиса, чёрном
1/--страниц
Пожаловаться на содержимое документа