close

Вход

Забыли?

вход по аккаунту

?

АлисА - Крещение

код для вставкиСкачать
Изгой (2005)
Крещение
!(К. Кинчев)
[E|-----------------------------------|
H|------------0----------------0-1-3-|
G|----0------0-2-0-----0------0------|
D|---4-4----2---------4-4----2-------|
A|--2---2--3---------2---2--3--------|
E|-0----------------0----------------|]
>Em
Вечер и ночь, утро и день,
>C Am
Год за годом греет огонь,
>C Am
Трепетом надежды томит
> Em
Души первых.
Новое вино - новая кровь
Время повернет в посолонь.
Белая рубаха, да крест -
Бремя верных.
>G Am D
Заново в солнце родится
> G Am Em
Пламя внимательных глаз.
>G Am D
Жизнь мерить с чистой страницы,
> C Am D Hm
По крещении тебя, по крещении меня, по крещении нас.
Из семи одну новую дверь
В небо открывает купель,
По миру пускает тоску
Ветхой мути.
Постригом жечь, тайной омыть
Помыслов пожар-канитель,
И себя увидеть иным
В новой сути.
!Комментарий автора подбора к песне:
!Тем же перебором, что и вступление на <Em>, на <С>, <Am>, и <D> [5-4-3-2-3-4].
!На <Hm> - просто вниз [6-5-4-3-2-1]. Все просто и ясно
-
!(*) – номер струны
||(1)||----------------------------------------------------------------------------------------------------------------------------------------------|
||(2)||----------------------------------------------------------------------------------------------------------------------------------------------|
||(3)||-----------------0----------------------------0----4---2----0----------------------0---------------------------------0---------------------|
||(4)||------------4---------4-----------------2--------------------------------------4-----------4------------------2-----------9----10---12---|
||(5)||-------2--------------------5-----3--------------------------------------2------------------------5-----3----------------------------------|
||(6)||--0-----------------------------------------------------------------0------------------------------------------------------------------------|
[------------------------------------------------------------------------------------------------------------||
------------------------------------------------------------------------------------------------------------||
-----------------0------------------------------0----4----2-----0------------------------0----------------||
------------4---------4----0------------2------------------------------------------4------------4---------||
-------2--------------------------3-------------------------------------------2------------------------5---||
--0---------------------------------------------------------------------0-----------------------------------||]
Проигрыш:<EM D C> [||(2)||-12-12-10-8-12] <EM D C> [||(1)||-15-15-14-12|]
>EM
Вечер и ночь, утро и день,
>C Am
Год за годом греет огонь,
>C Am
Трепетом надежды томит
> EM Души первых. [||(3)||-12-12-11-9-|]
>EM
Новое вино – новая кровь
>C Am
Время повернет в посолонь.
>C Am
Белая рубаха, да крест –
> Em
Бремя верных. [||(3)||-12-12-11-9-|]
>G C D [||(2)||---13-13-12-10]
Припев:Заново в солнце родится
>G Ам Em [||(2)||-12-12-10-8|]
Пламя внимательных глаз.
>G C D
Жизнь мерить с чистой страницы, [||(2)||---13-13-12-10]
>C [||(3)||-10/12] Hm
По крещении тебя, по крещении меня, по крещении нас.
>Em
Из семи одну новую дверь
>C Am
В небо открывает купель,
>C Am
По миру пускает тоску
> Em
Ветхой мути.
>Em
Постригом жечь, тайной омыть
>C Am
Помыслов пожар-канитель,
>C Am
И себя увидеть иным
> Em
В новой сути.
-
> Em
Вечер и ночь, утро и день,
> C Am
Год за годом греет огонь,
> C Am
Трепетом надежды томит
> Em
Души первых.
Новое вино новую кровь
Время повернет в посолонь.
Белая рубаха, да крест –
Бремя верных.
> G Am D
Заново в солнце родится
> G Am Em
Пламя внимательных глаз.
> G Am D
Жизнь мерить с чистой страницы,
> Am7 Hm
По крещении тебя, по крещении меня, по крещении нас.
Из семи одну первую дверь
В небо открывает купель,
По миру пускает тоску
Ветхой мути.
Постригом жечь, тайной омыть
Помыслов пожар-канитель,
И себя увидеть иным
В новой сути.
Заново в солнце родится
Пламя внимательных глаз.
Жизнь мерить с чистой страницы,
По крещении тебя, по крещении меня, по крещении нас.
Документ
Категория
Ноты, аккорды
Просмотров
8
Размер файла
5 Кб
Теги
крещением, алиса
1/--страниц
Пожаловаться на содержимое документа