close

Вход

Забыли?

вход по аккаунту

?

Альбенис И - Легенда

код для вставкиСкачать
Легенда
|----0----0---0-----0-----0-----0-|----0-----0-----0-----0-----0----0|
|---------------------------------|----------------------------------|
|---------------------------------|----------------------------------|
|------2----3----0-----2----------|-------2-----3-----0-----2--------|
|-0--------------------------3----|--0----------------------------3--|
|---------------------------------|----------------------------------|
|----0----0---0-----0-----0-----0-|----0----0--------0-----0-------0-|
|---------------------------------|----------------------------------|
|---------------------------------|----------------------------------|
|------2----3----0-----2----------|-0-------------0------------------|
|-0--------------------------3----|------2-----3--------2------3-----|
|---------------------------------|----------------------------------|
|----0----0--------0-----0-------0|----0----0---0-----0-----0-----0-|
|---------------------------------|---------------------------------|
|---------------------------------|---------------------------------|
|-0-------------0-----------------|------2----3----0-----2----------|
|------2-----3--------2------3----|-0--------------------------3----|
|---------------------------------|---------------------------------|
|----0----0---0-----0-----0-----0-|----0----0--------0-----0-------0|
|---------------------------------|---------------------------------|
|---------------------------------|---------------------------------|
|------2----3----0-----2----------|-0-------------------------------|
|-0--------------------------3----|------2-----3---0----------------|
|---------------------------------|----------------------3------1---|
|----0----0---0-----0-----0-----0-|----0----0---0-----0-----0-----0-|
|---------------------------------|---------------------------------|
|---------------------------------|---------------------------------|
|------2----3----0-----2----------|------2----3----0-----2----------|
|----------------------------2----|----------------------------2----|
|-0-------------------------------|-0-------------------------------|
|----0----0---0-----0-----0----0--|----0-----0------0------0------0-|
|---------------------------------|---------------------------------|
|---------------------------0-----|----------------------------------|
|-----------0----2-----3----------|-2-----3------0------2------------|
|-------2-------------------------|-----------------------------2----|
|-0-------------------------------|----------------------------------|
|----0----0---0-----0-----0-----0-|----0----0---0-----0-----0-----0-|
|---------------------------------|---------------------------------|
|---------------------------------|---------------------------------|
|------2----3----0-----2----------|------2----3----0-----2----------|
|----------------------------2----|----------------------------2----|
|-0-------------------------------|-0-------------------------------|
|----0----0---0-----0-----0----0--|----0-----0------0------0------0-|
|---------------------------------|----------------------------------|
|---------------------------0-----|----------------------------------|
|-----------0----2-----3----------|-2-----3------0------2------------|
|-------2-------------------------|-----------------------------3----|
|-0-------------------------------|----------------------------------|
|----0-----0---
|--------------
|--------------
|-0------------
|-------2------
|--------------
|----0----0---0-----0-----0-----0-|----0-----0-----0-----0-----0----0|
|---------------------------------|----------------------------------|
|--2-----2---2-----2-----2----2---|---2-----2----2-----2-----2-----2-|
|------2----3----0-----2----------|-------2-----3-----0-----2--------|
|-0--------------------------3----|--0----------------------------3--|
|---------------------------------|----------------------------------|
|----0----0---0-----0-----0-----0-|----0----0---0-----0-----0-----0-|
|---------------------------------|---------------------------------|
|--2-----2---2-----2-----2----2---|--2-----2---2-----2-----2----2---|
|------2----3----0-----2----------|-0-------------------------------|
|-0--------------------------3----|------2----3-----0---------------|
|---------------------------------|-----------------------3----1----|
|----|
|----|
|-1--|
|-2--|
|-2--|
|-0--|
Документ
Категория
Ноты, аккорды
Просмотров
8
Размер файла
5 Кб
Теги
альбенис, легенда
1/--страниц
Пожаловаться на содержимое документа