close

Вход

Забыли?

вход по аккаунту

?

Ария - Без тебя

код для вставкиСкачать
*С кем ты?* (1986)
Без тебя
!(В.Кипелов, А.Большаков - М.Пушкина)
>Am F G C H7
Снова ровно брошен лунный свет
>Am F G C H7
Дом мой сонный серебром одет.
>Am F G C H7
(***)
>Am F G C H7
(***)
>Am G Em
Припев:Все, все как вчера
>Am G Em
Все, все как вчера
>Am G
Все, все как вчера
>C H7
Но без тебя.
Лунной кисти не достичь глубин
Эту бездну знаю я один.
Ревность, жалость словно заодно
Птицей скорби падаю на дно.
!-------- Табулатура ------------------------------
> Dm C Hb A
[e|-1----------0----------------------------------|
B|---3-----3-----1-----1--3-----------2----------|
G|------2-----------0--------3-----------2-----2-|
D|-0----------------------------------------2----|
A|------------3-----------1-----3--1--0----------|
E|-----------------------------------------------|]
снова брошен в окна лунный свет
> Dm C Hb C Dm
[e|--1-----------0-------------0-1------|
B| ----3-----3-----1-----1-3------3---3|
G|--------2-----------0-------------2--|
D|--0---------------------------0------|
A|--------------3----------1--3--------|
E|-------------------------------------|]
дом мой сонный серебром одет
[e|--1--0-------0----------------------------|
B|-------1--------3-------3-2--------2------|
G|---------0--------3---------2---2----2----|
D|--0-----------------3---------2--------2--|
A|-----3-------3--1-------1-0---------------|
E|------------------------------------------|]
M-M-M....
Лунной кисти не достичь глубин
Эту бездну знаю я один
Припев:< D G5>
Все, как вчера [e|--2----3--]
[B|--3----3--] x - глушится
<D G5 Hb C> [G|--2----0--] (0) - по вкусу
Все, как вчера [D|--0----0--] С в припеве лучше
[A|-(0)---x--] брать барре
<D G5> [E|-------3--]
Все, как вчера
> A Gm F A
Но без тебя
! Соло
!Гитара 2
[e|----3--5-6-5------------||--5--3-----3----------||
B|-6------------5--6--5---||--------6-----6--5----||
G|-----------------------o||o--------------------o||
D|-----------------------o||o--------------------o||
A|------------------------||----------------------||
E|------------------------||----------------------||]
!Гитара 1
[e|----0--1-3-1------------||--1--0-----0----------||
B|-3------------2--3--2---||--------3-----3--2----||
G|-----------------------o||o--------------------o||
D|-0---------------------o||o-0------------------o||
A|----3--1------0--1--0---||-----3--1--3--1--0----||
E|------------------------||----------------------||]
!Если играется в одну гитару, то играется только партия
!гитары (два раза) В две гитары: сначала гитара 1 ведет соло,
!гитара 2 играет аккорды перебором; На втором повторе соло
!гитара 2 играет то, что выписано сверху, дублирует в терцию,
!Закончить песню хорошо арпеджио в <D> говоря по-ученому.
-
!Версия песни из игры "Дальнобойщики-2" (или альбом "2000 и 1 ночь")
!Играется на 4/4, желательно в две гитары (1я по табулатуре, 2я по аккордам
!перебором 1-2-3-2).
Intro:< Fm# E D C# Fm# E D E>
1|5-----5-|4-----4-|2-----2-|1---4-0-|5-----5-|4-----4-|2---4---|2-------||
2|--7-----|--5-----|--3-----|--2-----|--7-----|--5-----|--------|--------||
3|----6---|----4---|----2---|--------|----6---|----4---|--------|--------||
> E D C# C# E D C# C#
1|5-4-----|4-2-----|-1------|--------|5-4-----|4-2-----|1-------|--------||
2|--------|--------|--------|--------|--------|--------|--------|--------||
3|--------|--------|--------|--------|--------|--------|--------|--------||
1 куплет:< Fm# E D C#>
1|-5--------5-|-4--------4-|-2-------2-|-1-----4--0-||
2|----7-------|----5-------|----3------|----2-------||
3|-------6----|-------4----|-------2---|------------||
Снова брошен в окна лунный свет,
< Fm# E D E>
1|-5--------5-|-4--------4-|-2-----4-----|-2--------||
2|----7-------|----5-------|-------------|----------||
3|-------6----|-------4----|-------------|----------||
Дом мой сонный серебром одет.
> E D C# C# E D C# C#
1|5-4-----|4-2-----|1-------|--------|5-4-----|4-2-----|1-------|--------||
2|--------|--------|--------|--------|--------|--------|--------|--------||
3|--------|--------|--------|--------|--------|--------|--------|--------||
У-у у-у у-у-у, у-у у-у у-у-у.
> Fm# E D C#
Лунной кисти не достичь глубин,
>Fm# E D E
Эту бездну знаю я один.
>E D C# C#
У-у, у-у, у-у-у.
E D C# C#
У-у, у-у, у-у-у.
Припев:(скорее всего неправильно, припев не сам подбирал)
> D Gm
Всё, всё как вчера!
> D Gm D-C#
Всё, всё как вчера!
> D B
Всё, всё как вчера,
> Fm A A7
Но без тебя - а - а - а!
2 куплет:(так же как и первый, только фоновая гитара играет арпеджио
(вниз по всем струнам)).
Ревность, жалость - словно заодно...
Птицей скорби падаю на дно.
У-у, у-у, у-у-у.
У-у, у-у, у-у-у.
!Припев
!Соло (я его не знаю, скорее всего то же,
!что и в старой версии, только на квинту выше).
!Припев
!Внимание!!!
!Аккорды, используемые в песне, зажимаются толко (!) на трех первых струнах!!!
<Fm#> [xxx576]
<E> [xxx454]
<D> [xxx232]
<C#> [xxx121]
!Можно украсить басами, но я эту партию не подбирал, а басисту было в лом...
-
>Em D Em H7
Снова брошен в окна лунный свет,
>Em D C Em Am Em H7 Am Em H7
Дом мой сонный серебром одет.
Лунной кисти не достич глубин -
Эту бездну знаю я один.
Припев:< G D>
Все, все как вчера
Все, все как вчера
> G Am
Все, все как вчера
> H7
Hо без тебя...
Ревность, жалость, словно заодно,
Птицей скорби падаю на дно.
!Припев
-
1|-3-----3--2-----2--0-----0--2-----2-*
2|---0--------0--------1--------3-----*
3|-----0--------0--------0--------2---*
4|-2-----2--0-----0-----------0-----0-*
5|-------------------3-----3----------*
1|-3-----3--7-5-3-5-3--2-----2--5-3-2-3-2--0-----0--0-----0--2-----2-*
2|---0-------------------0-------------------1--------1--------3-----*
3|-----0-------------------0-------------------0--------0--------2---*
4|-2-----2-------------0-----0-------------------------------0-----0-*
5|-----------------------------------------3-----3--3-----3----------*
(1)Снова брошен в окна лунный свет,
Дом мой сонный серебром одет
MM... MM... MM... MM... MM... MM...
(2)Лунной кисти не достичь глубин
Эту бездну знаю я один
MM... MM... MM... MM... MM... MM...
Припев: <D Gm>
Все, все как вчера } 3 times
<Fm A A7>
Но без тебя...
(3)Ревность, жалость, словно заодно,
Птицей скорби падаю на дно
-
> Dm C Hb A
[e: -1----------0----------------------------------|
B: ---3-----3-----1-----1--3-----------2----------|
G: ------2-----------0--------3-----------2-----2-|
D: -0----------------------------------------2----|
A: ------------3-----------1-----3--1--0----------|
E: -----------------------------------------------|]
снова брошен в окна лунный свет
> Dm C Hb C Dm
[e: --1-----------0-------------0-1------|
B: ----3-----3-----1-----1-3------3---3-|
G: --------2-----------0-------------2--|
D: --0---------------------------0------|
A: --------------3----------1--3--------|
E: -------------------------------------|]
дом мой сонный серебром одет
[e: --1--0-------0----------------------------|
B: -------1--------3-------3-2--------2------|
G: ---------0--------3---------2---2----2----|
D: --0-----------------3---------2--------2--|
A: -----3-------3--1-------1-0---------------|
E: ------------------------------------------|]
M-M-M....
Лунной кисти не достичь глубин
Эту бездну знаю я один
>D G5
Припев:Все, как вчера [e: --2----3--]
[B: --3----3--] x - глушится
<D G5 Hb C> [G: --2----0--] (0) - по вкусу
Все, как вчера [D: --0----0--] <С> в припеве лучше
[A: -(0)---x--] брать барре
<D G5> [E: -------3--]
Все, как вчера
> A Gm F A
Но без тебя
!Соло.
!Гитара 2:
[e: ----3--5-6-5------------||--5--3-----3----------||
B: -6------------5--6--5---||--------6-----6--5----||
G: -----------------------o||o--------------------o||
D: -----------------------o||o--------------------o||
A: ------------------------||----------------------||
E: ------------------------||----------------------||]
!Гитара 1:
[e: ----0--1-3-1------------||--1--0-----0----------||
B: -3------------2--3--2---||--------3-----3--2----||
G: -----------------------o||o--------------------o||
D: -0---------------------o||o-0------------------o||
A: ----3--1------0--1--0---||-----3--1--3--1--0----||
E: ------------------------||----------------------||]
!Если играется в одну гитару, то играется только партия
!гитары (два раза) В две гитары: сначала гитара 1 ведет соло,
!гитара 2 играет аккорды перебором; На втором повторе соло
!гитара 2 играет то, что выписано сверху, дублирует в терцию,
!Закончить песню хорошо арпеджио в <D> говоря по-ученому.
Снова ровно брошен лунный свет
Дом мой сонный серебром одет.
Припев:Все, все как вчера
Все, все как вчера
Все, все как вчера
Но без тебя.
Лунной кисти не достичь глубин
Эту бездну знаю я один.
Ревность, жалость словно заодно
Птицей скорби падаю на дно.
-
> Dm C Gm A7
Снова брошен в окна лунный свет,
> Dm C Gm C Dm C Gm B A7
Дом мой сонный серебром одет.
Лунной кисти не достичь глубин -
Эту бездну знаю я один.
> D Gm B
Все, все как вчера,
Все, все как вчера,
Все, все как вчера,
> B A A7
Но без тебя...
Ревность, жалость, словно заодно,
Птицей скорби падаю на дно.
Все, все как вчера,
Все, все как вчера,
Все, все как вчера,
Но без тебя...
-
!Этo игpaют OНИ...
!Tempo: slow (78 bpm)
!(0:01 - 0:25)
INTRO:(Gtr.1 - clean acoustic)
[Gtr.1E|--1---------------0---------------|-------------------------0-------|
H|------3-------3-------3-------3---|-3---------------2-----------2---|
G|----------2---------------2-------|-----0---------------------------|
D|--0-------------------------------|---------------------------------|
A|------------------3---------------|-1-----------1---0---0-----------|
E|----------------------------------|---------3-----------------------|
Gtr.1E|--1---------------0---------------|---------------------------------|
H|------3-------3-------3-------3---|-3-------5-------3-------3-------|
G|----------2---------------2-------|-----0-------0-------2-------2---|
D|--0-------------------------------|-----------------0---0-----------|
A|------------------3---------------|-1-------3-----------------------|
E|----------------------------------|---------------------------------|
Gtr.1E|--1---0-----------0---------------|---------0---------------0-------|
H|----------3-----------3-------3---|-2-----------2-------2-----------|
G|--------------2-----------0-------|-----2-----------2---------------|
D|--0-------------------------------|---------------------------------|
A|------3-----------3---1-----------|-0-------------------------------|
E|----------------------------------|---------------------------------|
Gtr.1E|--1---0-----------0---------------|---------0-----------0-----------|
H|----------3-----------3-------3---|-2-----------2-----------2-------|
G|--------------2-----------0-------|-----2-----------2-----------2---|
D|--0-------------------------------|---------------------------------|
A|------3-----------3---1-----------|-0-------------------------------|
E|----------------------------------|---------------------------------|]
!(0:25 - 0:50)
VERSE 1:[VoiceE|--------------------------------------------------------------------|
H|--6----6----------5----5--------------------------------------------|
G|-----------------------------------7----7---------------------------|
D|--------------------------------------------8--8----7---------------|
A|--------------------------------------------------------------------|
E| Sno -va bro -shen v ok -na lunnyy svet -----------|
| | |
Gtr.1E|--1---------------0---------------|-------------------------0-------|
H|------3-------3-------3-------3---|-3---------------2-----------2---|
G|----------2---------------2-------|-----0---------------------------|
D|--0-------------------------------|---------------------------------|
A|------------------3---------------|-1-----------1---0---0-----------|
E|----------------------------------|---------3-----------------------|
VoiceE|--------------------------------------------------------------------|
H|--6----6----------5----5--------------------5---5---6---------------|
G|-----------------------------------7--7-----------------------------|
D|--------------------------------------------------------------------|
A|--------------------------------------------------------------------|
E| Dom moy son -nyy sereb - rom o -det. ---------|
| | |
Gtr.1E|--1---------------0---------------|---------------------------------|
H|------3-------3-------3-------3---|-3-------5-------3-------3-------|
G|----------2---------------2-------|-----0-------0-------2-------2---|
D|--0-------------------------------|-----------------0---0-----------|
A|------------------3---------------|-1-------3-----------------------|
E|----------------------------------|---------------------------------|
VoiceE|--------------------------------------------------------------------|
H|--6---5-----------5-------------------------------------------------|
G|----------------------7-------------6-------------------------------|
D|--------------------------------------------------------------------|
A|--------------------------------------------------------------------|
E| A - a a - a a........ --------------------|
| | |
Gtr.1E|--1---0-----------0---------------|---------0---------------0-------|
H|----------3-----------3-------3---|-2-----------2-------2-------2---|
G|--------------2-----------0-------|-----2-----------2---------------|
D|--0-------------------------------|---------------------------------|
A|------3-----------3---1-----------|-0-------------------------------|
E|----------------------------------|---------------------------------|
A - a a - a a...
Gtr.1E|--1---0-----------0---------------|---------0---------------0-------|
H|----------3-----------3-------3---|-2-----------2-------2-------2---|
G|--------------2-----------0-------|-----2-----------2---------------|
D|--0-------------------------------|---------------------------------|
A|------3-----------3---1-----------|-0-------------------------------|
E|----------------------------------|---------------------------------|]
!(0:50 - 1:14)
VERSE 2:[ Lun -noy kis -ti ne dostich' glubin.
Gtr.1E|--1---------------0---------------|-------------------------0-------|
H|------3-------3-------3-------3---|-3---------------2-----------2---|
G|----------2---------------2-------|-----0---------------------------|
D|--0-------------------------------|---------------------------------|
A|------------------3---------------|-1-----------1---0---0-----------|
E|----------------------------------|---------3-----------------------|
| | |
Gtr.2E|----------------------------------|---------------------------------|
H|----------------------------------|---------------------------------|
G|--------------------------2-------|-3-----------3---2-----------0h2-|
D|--0---------------2---3-----------|---------5---------------2h3-----|
A|----------------------------------|---------------------------------|
E|----------------------------------|---------------------------------|
E -tu bezdnu zna -yu ya o - din.
Gtr.1E|--1---------------0---------------|---------------------------------|
H|------3-------3-------3-------3---|-3-------5-------3-------3-------|
G|----------2---------------2-------|-----0-------0-------2-------2---|
D|--0-------------------------------|-----------------0---0-----------|
A|------------------3---------------|-1-------3-----------------------|
E|----------------------------------|---------------------------------|
| | |
Gtr.2E|----------------------------------|---------0---1-------------------|
H|----------------------------------|-3---------------3---------------|
G|--------------------------2-------|-----0---------------------------|
D|--0---------------2---3-----------|---------------------------------|
A|----------------------------------|---------------------------------|
E|----------------------------------|---------------------------------|]
!(1:15 - 1:39)
CHORUS:(distorted tone)
[VoiceE|--------------------------------------------------------------------|
H|--------------------------------------------------------------------|
G|--------------------------------------------------------------------|
D|----4-------------4----5------7-----5-------------------------------|
A|--------------------------------------------------------------------|
E|- Vsyo, vsyo kak vche - ra -----------------------------|
| | |
Gtr.3E|--2-------------------------------|---------------------------------|
H|--3-------------------------------|---------------------------------|
G|--2-------------------------------|---------------------------------|
D|--0-------------------------------|-5-------------------------------|
A|----------------------------------|-5-------------------------------|
E|----------------------------------|-3-------------------------------|
| | |
Bass G|----------------------------------|---------------------------------|
D|--------------7p4p0-----4----7----|-5---------0h5h7-8-------8-7-5-7-|
A|--5-------------------------------|---------------------------------|
E|----------------------------------|---------------------------------|
VoiceE|--------------------------------------------------------------------|
H|--------------------------------------------------------------------|
G|--------------------------------------------------------------------|
D|----4-----------4------5------7-----5-------------------------------|
A|--------------------------------------------------------------------|
E|- Vsyo, vsyo kak vche - ra -----------------------------|
| | |
Gtr.3E|--2-------------------------------|---------------------------------|
H|--3-------------------------------|---------------------------------|
G|--2-------------------------------|-----------------3-------5-------|
D|--0-------------------------------|-5---------------3-------5-------|
A|----------------------------------|-5---------------1-------3-------|
E|----------------------------------|-3-------------------------------|
| | |
Bass G|----------------------------------|---------------------------------|
D|--4-----------7p4p0-----4----7----|-5-------------------------------|
A|----------------------------------|-----------------1-------3-------|
E|----------------------------------|---------------------------------|
VoiceE|--------------------------------------------------------------------|
H|--------------------------------------------------------------------|
G|-----------------------------------------------------5--------------|
D|----4-----------4------5------7-----8------------8-----------8------|
A|--------------------------------------------------------------------|
E|- Vsyo, vsyo kak vche - ra, no bez te - |
| | |
Gtr.3E|--2-------------------------------|---------------------------------|
H|--3-------------------------------|---------------------------------|
G|--2-------------------------------|---------------------------------|
D|--0-------------------------------|-5-----------------------------x-|
A|----------------------------------|-5-----------------------------x-|
E|----------------------------------|-3-----------------------------x-|
| | |
Bass G|----------------------------------|-----------------5---------------|
D|--------------7p4p0-----4----7----|-5---------0h5h7---------8-7-5\--|
A|--5-------------------------------|---------------------------------|
E|----------------------------------|---------------------------------|
VoiceE|--------------------------------------------------------------------|
H|--------------------------------------------------------------------|
G|--------------------------------------------------------------------|
D|-----7--------------------------------------------------------------|
A|--------------------------------------------------------------------|
E|- bya.... -------------------------------------------------------|
| | |
Gtr.3E|----------------------------------|---------------------------------|
H|----------------------------------|---------------------------------|
G|----------------------------------|---------------------------------|
D|-xh7----------5-7-5---------------|-3-----------2-3-2---------------|
A|-xh7--------------5---------------|-3---------------0---------------|
E|-xh5--------------3---------------|-1---------------0---------------|
| | |
Bass G|----------------------------------|---------------------------------|
D|--------------------------------5h|-7-----------5-7-----------------|
A|--0-------------------------------|---------------------------------|
E|----------------------------------|---------------------------------|]
!(1:39 - 2:04) VERSE 3
!(2:04 - 2:28) CHORUS
!(2:29 - 3:17)
SOLO:[SynthE||---------------------------------|---------------------------------|
H||-6-------8-------10------11--10--|-8-----------6---5---------------|
G||-7-------9-------10------12--10--|-9-----------7---6---------------|
D||---------------------------------|---------------------------------|
A||---------------------------------|---------------------------------|
E||---------------------------------|---------------------------------|
SynthE|----------------------------------|---------------------------------|
H|--6-------8-------10------11--10--|-8-----------6---5---------------|
G|--7-------9-------10------12--10--|-9-----------7---6---------------|
D|----------------------------------|---------------------------------|
A|----------------------------------|---------------------------------|
E|----------------------------------|---------------------------------|
SynthE|----------------------------------|---------------------------------|
H|--6-------5-------3---------------|---------------------------------|
G|--7-------5-------3-----------3---|---------------------------------|
D|--------------------------5---5---|-7-------------------------------|
A|--------------------------5-------|-7-------------------------------|
E|----------------------------------|---------------------------------|
SynthE|----------------------------------|---------------------------------||
H|--6-------5-------3---------------|---------------------------------||
G|--7-------5-------3-----------3---|---------------------------------||
D|--------------------------5---5---|-7-------------------------------||
A|--------------------------5-------|-7-------------------------------||
E|----------------------------------|---------------------------------||]
!(3:18 - 4:07) CHORUS two more times.
!(4:07 - 4:19)
OUTRO:[Gtr. E|-------------- free time ----------------------------------------------------|
H|-------------------------------------------------------------------10--------|
G|--7--------------------------------7---9--9b11r9------------9h10h11----------|
D|--7----------------------------7-----------------12-9-12--12-----------------|
A|--5----------0-----5---7---9-------------------------------------------------|
E|-----------------------------------------------------------------------------|
Gtr. E|--12--12b14r12-10h12p10\9h10p9-----------------------------------------------|
H|-------------------------------12-10------10-12-10---------------------------|
G|-------------------------------------11------------11-9-7-9-11-9-7h9p7-6-7-6-|
D|-----------------------------------------------------------------------------|
A|-----------------------------------------------------------------------------|
E|-----------------------------------------------------------------------------|
Gtr. E|-----------------------------------------------------------------------------|
H|-----------------------------------------------------------------------------|
G|-----------------------------------------------------------------------------|
D|--9-----7-----5--------------------------------------------------------------|
A|--------------------9-----7-----5-----4-----5--------------------------------|
E|-----------------------------------------------------------------------------|]
Документ
Категория
Ноты, аккорды
Просмотров
36
Размер файла
28 Кб
Теги
без, ария
1/--страниц
Пожаловаться на содержимое документа