close

Вход

Забыли?

вход по аккаунту

?

Ария - Машина смерти

код для вставкиСкачать
Штиль (2002)
Машина смерти
!(С.Терентьев - М.Пушкина)
>Em G G# Am
(1)Машина смерти сошла с ума
>Am G F Em H C H Em
Она летит сметая всех
Мы увернулись на этот раз
Ушли по белой полосе
>Am H C Em
Переход:Мы здесь сегодня
>Em F# G C
А завтра будем там
>C Am H
Где тошно от огня чертям
> Em D C
Припев:Мы будем драться на земле
>C Am
Под солнцем и в кромешной тьме
>Am C Em
Мы будем драться в небесах
>C D Em
Мы будем дратся до конца
Мы будем драться чтобы жить
За тех кто первым был убит
Как словно призрак без лица
Мы будем драться до конца
Мы будем драться
(2)Под чёрной майкой играет кровь
И мы готовы побеждать
Так дай нам дело без лишних слов
Отправь подальше воевать
Переход:Войну придумай
Придумай нам врага
И серть что рыщет в трёх шагах
!Припев.
-
>D#m
Машина смерти сошла с ума,
>G#m E D#m B D#m
Она летит сметая всех.
Мы увернулись на этот раз,
Ушли по белой полосе.
>G#m B H
Мы здесь сегодня,
>D#m F F#
А завтра будем там
>H G#m C# B
Где тошно от огня чертям.
> D#m C#
Мы будем драться на земле,
> H G#m
Под солнцем и в кромешной тьме,
> H D#m
Мы будем драться в небесах,
> H C# F
Мы будем дратся до конца.
Мы будем драться, чтобы жить,
За тех, кто первым был убит.
Как, словно призрак без лица,
Мы будем драться до конца,
Мы будем драться.
Под чёрной майкой играет кровь,
И мы готовы побеждать.
Как тайна тела без лишних слов
Отправь подальше воевать.
Войну придумай,
Придумай нам врага.
И смерть, что рыщет в трёх шагах.
Мы будем драться на земле,
Под солнцем и в кромешной тьме,
Мы будем драться в небесах,
Мы будем дратся до конца.
Мы будем драться чтобы жить,
За тех кто первым был убит,
Как словно призрак без лица,
Мы будем драться до конца.
Мы будем драться.
Мы здесь сегодня,
А завтра будем там,
Где тошно от огня чертям.
Мы будем драться на земле,
Под солнцем и в кромешной тьме,
Мы будем драться в небесах.
Мы будем дратся до конца.
Мы будем драться чтобы жить,
За тех кто первым был убит,
Как словно призрак без лица.
Мы будем драться до конца,
Мы будем драться.
-
!Tempo: 95 bpm
!RIFF 1:
!Gtr. [E|-------------------------------------------------|-------------------------------------------------|]
[H|-------------------------------------------------|-------------------------------------------------|
G|-------------------------------------------------|-------------------------------------------------|
D|-------------------------------------------------|-------------------------------------------------|
A|----------------7--------------------------------|----------------7--------------------------------|
E|-3-p0--0--7-p0-----0--0--3-p0--0--6-p0--6--5~~~~-|-3-p0--0--7-p0-----0--0--3--0--6--5~~~~~~~~~-----|]
!Gtr. [E|-------------------------------------------------|-------------------------------------------------|]
[H|-------------------------------------------------|-------------------------------------------------|
G|-------------------------------------------------|-------------------------------------------------|
D|-------------------------------------------------|-------------------------------------------------|
A|----------------7--------------------------------|-6--------5--------4--------------------------2--|
E|-3-p0--0--7-p0-----0--0--3-p0--0--6-p0--6--5~~~~-|----7--0-----6--0-----5--0--0--3--6-----3-----0--|]
!VERSE:
!Voice[E|---------------------------------------------------------------------------------------------------|]
[H|---------------------------------------------------------------------------------------------------|
G|-------4-----4----5--4-----------------------------------------------------------------------------|
D|-------------------------------7----------------------------------------5--------------------------|
A|---------------------------------------------------------7------7----7-----------------------------|
E|---- Ma - shi - na smer - ti so - shla s uma ------------------------|
| | |]
!Gtr. [E|-------------------------------------------------|-------------------------------------------------|]
[H|-------------------------------------------------|-------------------------------------------------|
G|-------------------------------------------------|-------------------------------------------------|
D|-------------------------------------------------|-------------------------------------------------|
A|(2)-------------------2-----------------------2--|(2)-------------------2-----------------5--6--7--|
E|(0)-0--0--0--0--0--0--0-----0--0--0--0--0--0--0--|(0)-0--0--0--0--0--0--0-----0--0--0--0--3--4--5--|]
!Voice[E|---------------------------------------------------------------------------------------------------|]
[H|---------------------------------------------------------------------------------------------------|
G|-------5-----5----5--4------------------------4----------------------------------------------------|
D|-------------------------------7-----5--7----------------------------------------------------------|
A|---------------------------------------------------------------------------------------------------|
E|---- o - na letit, sme - taya vseh. ---------------------------------------------|
| | |]
!Gtr. [E|-------------------------------------------------|-------------------------------------------------|]
[H|-------------------------------------------------|-------------------------------------------------|
G|-------------------------------------------------|-------------------------------------------------|
D|-------------------------------------------------|----------------------------4--4-/5--5-\4--4-----|
A|(7)----------7--5-----3-----------------------2--|(2)----------2--------2-----2--2-/3--3-\2--2--2--|
E|(5)-5--5--5--5--3-----1-----1--1--1--1--1--1--0--|(0)-0--0--0--0--0--0--0-----------------------0--|]
!...
!BRIDGE:
!Voice[E|---------------------------------------------------------------------------------------------------|]
[H|-------5-----5-----7--7-----------8----------------------5-----5-----7-----7--8-----5--------------|
G|---------------------------------------------------------------------------------------------------|
D|---------------------------------------------------------------------------------------------------|
A|---------------------------------------------------------------------------------------------------|
E|---- My zdes' segod - nya, a za -vtra budem tam. ----------|
| | |]
!Gtr. [E|-------------------------------------------------|-------------------------------------------------|]
[H|-------------------------------------------------|-------------------------------------------------|
G|(2)-------------------4-----------5--------------|----------------------------------------------5--|
D|(2)-------------------4-----------5-----------2--|(2)-------------------4-----------5-----------5--|
A|(0)-------------------2-----------3-----------2--|(2)-------------------4-----------5-----------3--|
E|----------------------------------------------0--|(0)-------------------2-----------3--------------|]
!Voice[E|-------------------------------------5-------------------------------------------------------------|]
[H|-------5-----5-----7--7--------5--------8-----8----------7--------------------------8--8-----7-----|
G|---------------------------------------------------------------------------------------------------|
D|---------------------------------------------------------------------------------------------------|
A|---------------------------------------------------------------------------------------------------|
E|---- ??? ----------------------------------------------------------------------- My bu - dem --|
| | |]
!Gtr. [E|-------------------------------------------------|-------------------------------------------------|]
[H|----------------------------------------------4--|(4)----------------------------------------------|
G|(5)-------------------2-----------------------4--|(4)-------------------4--R-----------------------|
D|(5)-------------------2-----------------------4--|(4)-------------------4--E-----------------------|
A|(3)-------------------0-----------------------2--|(2)-------------------2--S-----------------------|
E|-------------------------------------------------|-------------------------T-----------------------|]
!CHORUS:
!Voice[E|--------------------------------------------------------------5------------------------------------|]
[H|---7----5----5-----7--8-----------8---8----7--7----------5-------8------7-----5-----8--8-----7-----|
G|---------------------------------------------------------------------------------------------------|
D|---------------------------------------------------------------------------------------------------|
A|---------------------------------------------------------------------------------------------------|
E| drat'sya na zemle, pod solntzem i v kro - meshnoy t'me - e. My bu - dem --|
| | |]
!Gtr. [E|-------------------------------------------------|-------------------------------------------------|]
[H|-------------------------------------------------|-------------------------------------------------|
G|-------------------------------------------------|-------------------------------------------------|
D|-9--------------------7-----------------------5--|(5)-------------------2-----------------------5--|
A|-7--------------------5-----------------------3--|(3)-------------------0--------------0--2-----3--|
E|-------------------------------------------------|-------------------------------------------------|]
!Voice[E|---------------------------------------------------------------5-----------------------------------|]
[H|---7----5----5--------------------8---8-----7------7-----5----------7---8-----------8--8-----7-----|
G|----------------7-----7-----4----------------------------------------------------------------------|
D|---------------------------------------------------------------------------------------------------|
A|---------------------------------------------------------------------------------------------------|
E| drat'sya v nebe - sa - ah. My bu - dem drat'sya do kontza. My bu - dem --|
| | |]
!Gtr. [E|-------------------------------------------------|-------------------------------------------------|]
[H|-------------------------------------------------|-------------------------------------------------|
G|-------------------------------------------------|-------------------------------------------------|
D|(5)-------------------------------------------5--|(5)-------------------7-----------8-----------9--|
A|(3)-------------------2-----------------------3--|(3)-------------------5-----------6-----------7--|
E|-------------3--2-----0--------------------------|-------------------------------------------------|]
!...
!SOLO:
!Gtr.1[E|-------------------------------------------------|-------------------------------------------------|]
[H|-7--8--7-----------------7--8--7-----------------|-7--8--7-----------------7--8--7-----------------|
G|----------9-----------------------9--------------|----------9-----------------------9--------------|
D|-------------------------------------------------|-------------------------------------------------|
A|-------------------------------------------------|-------------------------------------------------|
E|-------------------------------------------------|-------------------------------------------------|
| | |]
!Gtr.2[E|-------------------------------------------------|-------------------------------------------------|]
[H|-------------------------------------------------|-------------------------------------------------|
G|-------------------------------------------------|-------------------------------------------------|
D|-------------------------------------------------|-------------------------------------------------|
A|-7--7--7--7--7--7--7--7--7--7--7--7--7--7--7--7--|-7--7--7--7--7--7--7--7--7--7--7--7--7--7--7--7--|
E|-------------------------------------------------|-------------------------------------------------|]
!Gtr.1[E|-------------------------------------------------|-------------------------------------------------|]
[H|-4--5--4-----------------4--5--4-----------------|-4--5--4-----------------4--5--4-----------------|
G|----------6~~~~~~~~~~-------------6~~~~~~~~~~----|----------6~~~~~~~~~~-------------6~~~~~~~~~~----|
D|-------------------------------------------------|-------------------------------------------------|
A|-------------------------------------------------|-------------------------------------------------|
E|-------------------------------------------------|-------------------------------------------------|
| | |]
!Gtr.2[E|-------------------------------------------------|-------------------------------------------------|]
[H|-------------------------------------------------|-------------------------------------------------|
G|-------------------------------------------------|-------------------------------------------------|
D|-------------------------------------------------|-------------------------------------------------|
A|-4--4--4--4--4--4--4--4--4--4--4--4--4--4--4--4--|-4--4--4--4--4--4--4--4--4--4--4--4--4--4--4--4--|
E|-------------------------------------------------|-------------------------------------------------|]
! T T
!Gtr.1[E|-------------------------T-------10p5h6h8-10p8p6p5---------T-------|]
[H|------------------T------10p5h6h8-----------------8p6p5h6h8-10p8p6p5-|
G|----------T-------9p4h5h7-----------------------------------------|]
! [D|-T--------9p4h5h7-------------------------------------------------|] ...
[A|-10p4h5h7---------------------------------------------------------|
E|------------------------------------------------------------------|
| |]
!Gtr.2[E|------------------------------------------------------------------|]
[H|------------------------------------------------------------------|
G|------------------------------------------------------------------|
D|------------------------------------------------------------------|
A|--3---3---3---3---3---3---3---3---3---3---3---3---3---3---3---3---|
E|------------------------------------------------------------------|]
Документ
Категория
Ноты, аккорды
Просмотров
14
Размер файла
16 Кб
Теги
ария, смерть, машина
1/--страниц
Пожаловаться на содержимое документа