close

Вход

Забыли?

вход по аккаунту

?

Ария - Торреро

код для вставкиСкачать
Мания величия (1985)
Торреро
!(А.Грановский - М.Пушкина)
> C#
Вступление:4) -11-11-11-11---11--11-
5) -11-11-11-11---11--11-
6) -9--9--9--9----9---9--
> C# B A G#
Проигрыш 1:6) -9--11--12--9-11-12--7--9--11--7-9-11--5--7--9--5-7-9--4--5--4--5--4-5-
> C# B A G#
Проигрыш 2:4) -------6---4-1-----4-2-------------------
5) -4-6-7---------2-------4-0---0-4h7-6-----
6) -------------------------------------7-4-
> A G#
Проигрыш 3:4) -7--------------(6-6-6-6-6)- \
5) -7-------7-6-4---6-6-6-6-6-- } 2 раза
6) -5---0-5---------4-4-4-4-4-- /
! () - играть только во второй раз
Проигрыш 4:4) -------------4---6-
5) -------4-3-----6---
6) -5-4-2-----5-------
>C#m H
(1)Эй, тореро, жизнь как миг
> A G#
Опять звучит трубы призывный зов
Эй, тореро, ты или бык
Качается чаша весов
Проигрыш 3+:Бог хранит тебя
Смерть щадит тебя-а-а
>C# H A G# A G# A G#
Припев:Hеба белый платок
> A G# F# G# A G# A G# A G# A G#
Кровь и желтый песок
>F# A F# G# A G#
Крик отчаянья бык живая мишень
>C# H A G# A G# A G#
Под восторженный вой
>A F# G# A G# A G# A G# A G#
Ты играешь судьбой
>F# A F# G# A G#
Пусть не знает никто что творится в душе
!Проигрыш 4
(2)Эй, тореро, сын вдовы
Твой красный плащ твой траурный покров
Эй, тореро, ты будешь убит
Под песню мадридских часов
!Проигрыш 3+
!Припев
!Проигрыш 4
!Проигрыш 1
!Проигрыш 2
!Проигрыш 3
!Припев
!Вступление
-
!Вступление и проигрыш после каждого куплета:
[---------------------------------------------------------------------------
---------------------------------------------------------------------------
---------------------------------------------------------------------------
---------------------------------------------------------9-7-----7-5-------
-7-9-10-7-9-10-5-7-9-5-7-9-3-5-7-3-5-7-2-3-2-3-2--7-9-10---0-9-5-0---7-3---
-0-------------0-----------0-----------0----------0------------------------
---------------------------------------------------------------------------
---------------------------------------------------------------------------
--------------------7-6-4---------------------7-6-4---------
---2-5-4------5---5---------------------5---5-------9-9-9---
-3-------5-2----7---------9-9-9-10-7-9----7---------7-7-7---
-----------0--------------7-7-7---------------------0-0-0---]
>Em Hm
Эй, тореро, жизнь как миг
> C Hm
Опять звучит трубы призывный зов
>Em Hm
Эй, тореро, ты или бык
> C Hm
Качается чаша весов
> C Hm
Бог хранит тебя
> C Hm Am Hm
Смерть щадит тебя--а--а
> Em Hm
Неба белый платок
> C Hm
Кровь и желтый песок
> Em C Hm
Крик отчаянья бык живая мишень
> Em Hm
Под восторженный вой
> C Hm
Ты играешь судьбой
> Em C Hm Am Hm Hm Am Hm
Пусть не знает никто что творится в душе
Эй, тореро, сын вдовы
Твой красный плащ твой траурный покров
Эй, тореро, ты будешь убит
Под песню мадридских часов
Бог хранит тебя
Смерть щадит тебя-а-а
Неба белый платок
Кровь и желтый песок
Крик отчаянья бык живая мишень
Под восторженный вой
Ты играешь собой
Пусть не знает никто что творится в душе
-
!вступление и проигрыш после кaждого куплетa:
[---------------------------------------------------------------------------
---------------------------------------------------------------------------
---------------------------------------------------------------------------
---------------------------------------------------------9-7-----7-5-------
-7-9-10-7-9-10-5-7-9-5-7-9-3-5-7-3-5-7-2-3-2-3-2--7-9-10---0-9-5-0---7-3---
-0-------------0-----------0-----------0----------0------------------------
---------------------------------------------------------------------------
---------------------------------------------------------------------------
--------------------7-6-4---------------------7-6-4---------
----2-5-4------5---5---------------------5---5-------9-9-9---
-3-------5-2----7---------9-9-9-10-7-9----7---------7-7-7---
-----------0--------------7-7-7---------------------0-0-0---]
Эй, тореро, жизнь кaк миг
Опять звучит трубы призывный зов
Эй, тореро, ты или бык
Kaчaется чaшa весов
Бог хрaнит тебя
Смерть щaдит тебя--a--a
Hебa белый плaток
Kровь и желтый песок
Kрик отчaянья бык живaя мишень
Под восторженный вой
Ты игрaешь судьбой
Пусть не знaет никто что творится в душе
Эй, тореро, сын вдовы
Твой крaсный плaщ твой трaурный покров
Эй, тореро, ты будешь убит
Под песню мaдридских чaсов
Бог хрaнит тебя
Смерть щaдит тебя-a-a
Hебa белый плaток
Kровь и желтый песок
Kрик отчaянья бык живaя мишень
Под восторженный вой
Ты игрaешь собой
Пусть не знaет никто что творится в душе
-
!Intro
> C#
[-----------------------
-----------------------
-----------------------
-11-11-11-11---11--11--
-11-11-11-11---11--11--
-9--9--9--9----9---9---]
! ^let ring
!Riff1
> C# B A G#
[-------------------------------------------------------]\ listen to
[-------------------------------------------------------]| the song and
[-------------------------------------------------------]| check
[-------------------------------------------------------]| timing
[-------------------------------------------------------]| by yourself
[-9-11-12-9-11-12-7-9-11-7-9-11-5-7-9-5-7-9-4-5-4-5-4-5-]/
!With Riff1
> C# B A G#
[-------------------------------------------
-------------------------------------------
-------------------------------------------
-------6---4-1-----4-2---------------------
-4-6-7---------2-------4-0---0-4h7-6-------
-------------------------------------7-4---]
!Riff2 - 2 times
> A G#
[-----------------------------
-----------------------------
-----------------------------
-7--------------(6-6-6-6-6)--] ()-play only second time
[-7-------7-6-4---6-6-6-6-6---
-5---0-5---------4-4-4-4-4---]
!Riff3
[-----------------------------
-----------------------------
-----------------------------
-6-X16-times-----------------
-4------------x//-pickslide--
-----------------------------]
!Riff4 (very fast!)
[-----------------------------
-----------------------------
-----------------------------
-------------4---6-----------
-------4-3-----6-------------
-5-4-2-----5-----------------]
!Riff5
[---------------------------------
---------------------------------
-5-5-6-6-8-8-9-9-11-11-12-12-13--
-----------------------------^^--
-------------------------------let ring
---------------------------------]
>C#m B
Эй, тореро, жизнь как миг
> A G#
Опять звучит трубы призывный зов
>C#m B
Эй, тореро, ты или бык
> A G#
Качается чаша весов
!With Riff2:
Бог хранит тебя
Смерть щадит тебя--а--а
!Chorus:
> C# B A G# A G# A G#
Hеба белый платок
> A G# F# G# A G# A G# A G# A G#
Кровь и желтый песок
> F# A F# G# A G# Riff4
Крик отчаянья бык живая мишень
> C# B A G# A G# A G#
Под восторженный вой
> A F# G# A G# A G# A G# A G#
Ты играешь судьбой
> F# A F# G# A G# Riff4
Пусть не знает никто что творится в душе
Эй, тореро, сын вдовы
Твой красный плащ твой траурный покров
Эй, тореро, ты будешь убит
Под песню мадридских часов
Бог хранит тебя
Смерть щадит тебя-а-а
Hеба белый платок
Кровь и желтый песок
Крик отчаянья бык живая мишень
Под восторженный вой
Ты играешь собой
Пусть не знает никто что творится в душе
!Intro riff
!Riff1
!Riff2
!Solo
!Verse schords } 4 times
!Then goes only drums, bass and lead
!Chorus
!Riff5
>G#
Эй, тореро
!Intro riff (as outro)
-
!Вступление и проигрыш после кaждого куплетa:
[---------------------------------------------------------------------------
---------------------------------------------------------------------------
---------------------------------------------------------------------------
---------------------------------------------------------9-7-----7-5-------
-7-9-10-7-9-10-5-7-9-5-7-9-3-5-7-3-5-7-2-3-2-3-2--7-9-10---0-9-5-0---7-3---
-0-------------0-----------0-----------0----------0------------------------
---------------------------------------------------------------------------
---------------------------------------------------------------------------
--------------------7-6-4---------------------7-6-4---------
----2-5-4------5---5---------------------5---5-------9-9-9---
-3-------5-2----7---------9-9-9-10-7-9----7---------7-7-7---
-----------0--------------7-7-7---------------------0-0-0---]
>Em D
Эй, торреро, жизнь как миг.
>C H
Опять звучит трубы призывный зов.
>Em D
Эй, торреро, ты или бык?
>C H
Качается чаша весов.
> C Am H C H A H
Бог хранит тебя, смерть щадит тебя.
!< C> (<Am>) <H C> (<Am>) <H>
Hеба белый платок, кровь и желтый песок
Крик отчаянья, бык живая мишень.
Под восторженный вой ты играешь судьбой
Пусть незнает никто, что творится в душе.
Эй, торреро, сын вдовы.
Твой красный плащ, твой траурный покров.
Эй, торерро, ты будешь убит
Под песню мадридских часов.
!припев
-
> Dm C
(1)Эй, тореро, жизнь как миг.
> Bb A
Опять звучит трубы призывный зов.
>Dm C
Эй, тореро, ты или бык?
>Bb A
Качается чаша весов.
>Bb Gm6 Bb – A7
Припев:Бог хранит тебя,
>Bb Gm6 Bb – A7
Смерть щадит тебя
>Dm C6
Неба белый платок,
>Bb maj7 A7
Кровь и желтый песок,
>Gm
Крик отчаянья,
>Gm7 A7
Бык живая мишень.
>Dm C6
Под восторженный вой
>Bb A
Ты играешь судьбой.
>Gm
Пусть не знает никто,
>Gm7 A7
Что творится в душе.
(2)Эй, тореро, сын вдовы,
Твой красный плащ, твой траурный покров.
Эй, тореро, ты будешь убит
Под песню мадридских часов.
!Припев.
-
>Dm C
Эй, тореро, жизнь как миг,
> B A
Опять звучит трубы призывный зов.
>Dm C
Эй, тореро, ты или бык?
> B A
Качается чаша весов.
> B Gm6 B A
Бог хранит тебя,
> B Gm6 B A
Смерть щадит тебя.
> Dm C6
Неба белый платок,
> Bmaj7 A7
Кровь и желтый песок,
>Gm Gm7 A7
Крик отчаянья, бык живая мишень.
Под восторженный вой
Ты играешь судьбой.
Пусть не знает никто, что творится в душе.
Эй, тореро, сын вдовы,
Твой красный плащ, твой траурный покров.
Эй, тореро, ты будешь убит
Под песню мадридских часов.
Бог хранит тебя,
Смерть щадит тебя.
Неба белый платок,
Кровь и желтый песок,
Крик отчаянья, бык живая мишень.
Под восторженный вой
Ты играешь судьбой.
Пусть не знает никто, что творится в душе.
Документ
Категория
Ноты, аккорды
Просмотров
11
Размер файла
12 Кб
Теги
торреро, ария
1/--страниц
Пожаловаться на содержимое документа