close

Вход

Забыли?

вход по аккаунту

?

Ария - Штиль

код для вставкиСкачать
Химера (2001), Штиль (2002)
Штиль
!(В.Дубинин - М.Пушкина)
> Am G
(1)Штиль - ветер молчит
> Dm
Упал белой чайкой на дно
Штиль - наш корабль забыт
Один, в мире скованном сном...
>Am Cadd4 F
Переход:Между всех времен
> G
Без имен и лиц
>Am F
Мы уже не ждем,
> G E
Что проснется бриз!
(2)Штиль - сходим с ума
Жара пахнет черной смолой
Смерть одного лишь нужна
И мы, мы вернемся домой!
Переход:Его кровь и плоть
вновь насытит нас
А за смерть ему
Может, Бог воздаст!
> Am Cadd4 C F+ F E
Припев:Что нас ждет, море хранит молчанье
Жажда жить сушит сердца до дна
Только жизнь здесь ничего не стоит
Жизнь других, но не твоя!
(3)Нет, гром не грянул с небес
Когда пили кровь как зверье
Но нестерпимым стал блеск
Креста, что мы Южным зовем...
Переход:И в последний миг
Поднялась волна,
И раздался крик:
"Впереди Земля!"
!Припев } 2 раза
-
> Dm C
Штиль - ветер молчит
> Gm Dm
Упал белой чайкой на дно
Штиль - наш корабль забыт
Один, в мире скованном сном...
> C
Между всех времен
> Hb
Без имен и лиц
> C
Мы уже не ждем,
> Hb
Что проснется бриз!
Штиль - сходим с ума
Жара пахнет черной смолой
Смерть одного лишь нужна
И мы, мы вернемся домой!
Его кровь и плоть
вновь насытит нас
А за смерть ему
Может, Бог воздаст!
> Dm Bb A
Что нас ждет, море хранит молчанье
Жажда жить сушит сердца до дна
Только жизнь здесь ничего не стоит
Жизнь других, но не твоя!
Нет, гром не грянул с небес
Когда пили кровь как зверье
Но нестерпимым стал блеск
Креста, что мы Южным зовем...
И в последний миг
Поднялась волна,
И раздался крик:
"Впереди Земля!"
-
> Em Hm
Штиль-ветер молчит
> Am Em
Упал белой чайкой на дно
Штиль-наш корабль забыт
Один, в мире скованном сном
> C
Между всех времён
> D
Без имён и лиц
> C
Мы уже не ждем,
> H
Что проснётся бриз!
> Em Hm
Штиль - сходим с ума
> Am Em
Жара пахнет чёрной смолой
Смерть одного лишь нужна
И мы, мы вернёмся домой!
Его плоть и кровь
Вновь на сытит нас
А за смерть ему
Может, Бог воздаст!
> Em C H
Что нас ждёт, море хранит молчанье
Жажда жить сушит сердца до дна
Только жизнь здесь ничего не стоит
Жизнь других, но не твоя!
Нет, гром не грянул с небес
Когда пили кровь как зверьё.
Но нестерпимым стал блеск
Креста, что мы Южным зовем...
И в последний миг
Поднялась волна,
И раздался крик:
"Впереди Земля"
-
>Am G
Штиль - ветер молчит
> E F
Упал белой чайкой на дно
Штиль - наш корабль забыт
Один, в мире скованном сном...
>F
Между всех времен
>G
Без имен и лиц
Мы уже не ждем,
Что проснется бриз!
Штиль - сходим с ума
Жара пахнет черной смолой
Смерть одного лишь нужн
И мы, мы вернемся домой!
Его кровь и плоть
вновь насытит нас
А за смерть ему
Может, Бог воздаст!
>Am F Dm E
Что нас ждет, море хранит молчанье
Жажда жить сушит сердца до дна
Только жизнь здесь ничего не стоит
Жизнь других, но не твоя!
Нет, гром не грянул с небес
Когда пили кровь как зверье
Но нестерпимым стал блеск
Креста, что мы Южным зовем...
И в последний миг
Поднялась волна,
И раздался крик:
"Впереди Земля!"
-
>Dm C/a
(1)Штиль. Ветер молчит,
> Gm Dm
Упал белой чайкой на дно
Штиль. Наш корабль забыт
Один в мире скованным сном
!Pre-Chorus
>B C
Между всех времен без имен и лиц
>B C C/a
Мы уже не ждем, что проснется бриз
(2)Штиль. Сходим с ума,
Жара пахнет чёрной смолой
Смерть одного лишь нужна
И мы вернёмся домой.
Небо, плоть и кровь вновь насытят нас
А за смерть ему может Бог воздаст.
!Припев:
!Riff 1:
Что нас ждет море хранит молчанье
Жажда жить сушит сердца до дна
Только жизнь здесь ничего не стоит
Жизнь других, но не твоя
(3)Нет, гром не грянул с небес
Когда пили кровь как зверьё
Но нестерпимым стал блеск
Креста, что мы южным зовем
И в последний миг поднялась волна
И раздался крик: "Впереди земля".
!Припев } 2раза
!Riff 1:
[1-----------------------------------------------------------------------------------
2-----------------------------------------------------------------------------------
3--7-------------9------------10---------------7---9---10---------------------------
4--7-------------9------------10---------------7---9---10-----8---------7-----------
5--5--0-0-0-0-7---0-0-0-0-8----0-0-0-0---5---7---8------------8--------10-----------
6-----------------------------------------------------------------------------------
1-----------------------------------------------------------------------------------
2-----------------------------------------------------------------------------------
3--7-------------9------------10---------------7---9---10---------------------------
4--7-------------9------------10---------------7---9---10-----8---------------7-----
5--5--0-0-0-0-7---0-0-0-0-8----0-0-0-0---5---7---8------------8---------------------
6-----------------------------------------------------------------------------------]
-
!<A*> - 4 палец на 2-ой лад 3-ей струны (на всякий случай)
> Hm A A* A
Штиль. Ветер молчит.
> Em Hm
Упал белой чайкой на дно
> Hm A A* A
Штиль. Наш корабль забыт
> Em Hm
Один верескованным сном
> G A
Между всех времен без имен и лиц
> G A
Мы уже не ждем, что проснется бриз
Штиль. Сходим с ума.
Жара пахнет черной смолой
Смерть одному лишь нужна
И мы, мы вернемся домой
> G A
Его плоть и кровь вновь насытит нас
> G A F#
A за сметрь ему может Бог воздаст
> Hm G F#
Что нас ждет? Море хранит молчание
> Hm G F#
Жажда жить сушит сердца до дна
> Hm G F#
Только жизнь здесь ничего не стоит
> Hm G F#
Жизнь других, но не твоя
Нет, гром не грянул с небес,
Когда пили кровь как зверье
Но, нестерпимым стал блеск
В местах, что мы южным зовем
И в последний миг поднялась волна
И раздался крик: "впереди земля!"
-
<C1>: [310230]
<C2>: [030230]
<Am1>: [002200]
>Am C C1 C2
Штиль. Ветер молчит.
> Dm Am Am1
Упал белой чайкой на дно
> Am C C1 C2
Штиль. Наш корабль забыт
> Dm Am
Один верескованным сном
> F G
Между всех времен без имен и лиц
> F E
Мы уже не ждем, что проснется бриз
Штиль. Сходим с ума.
Жара пахнет черной смолой
Смерть одному лишь нужна
И мы, мы вернемся домой
Его плоть и кровь вновь насытит нас
A за сметрь ему может Бог воздаст
> Am F E
Что нас ждет? Море хранит молчание
> Am F E
Жажда жить сушит сердца до дна
> Am F E
Только жизнь здесь ничего не стоит
> Am E
Жизнь других, но не твоя
Нет, гром не грянул с небес,
Когда пили кровь как зверье
Но, нестерпимым стал блеск
В местах, что мы южным зовем
И в последний миг поднялась волна
И раздался крик: "впереди земля!"
-
<B>: [113331]
<Am*>: [002211]
<Dsus2>: [000230]
Intro:<B>, <A>, <Dm> (<Dsus2>)
> Dm Am (Am*) Am
Штиль. Ветер молчит.
> Gm Dm (Dsus2)
Упал белой чайкой на дно
> Dm Am (Am*) Am
Штиль. Наш корабль забыт
> Gm Dm
Один верескованным сном
> B C
Между всех времен без имен и лиц
> B A
Мы уже не ждем, что проснется бриз
> Dm Am (Am*) Am
Штиль. Сходим с ума.
> Gm Dm (Dsus2)
Жара пахнет черной смолой
> Dm Am (Am*) Am
Смерть одному лишь нужна
> Gm Dm
И мы, мы вернемся домой
> B C
Его плоть и кровь вновь насытит нас
> B A
А за сметрь ему может Бог воздаст
> Dm B A
Что нас ждет? Море хранит молчание
Жажда жить сушит сердца до дна
Только жизнь здесь ничего не стоит
Жизнь других, но не твоя
Нет, гром не грянул с небес,
Когда пили кровь как зверье
Но, нестерпимым стал блеск
В местах, что мы южным зовем
И в последний миг поднялась волна
И раздался крик: "впереди земля!"
-
! <Em Hm Hm-1> (смотрите внизу)
Штиль-ветер молчит
> Am Em
Упал белой чайкой на дно
Штиль-наш корабль забыт
Один, в мире скованном сном
> C
Между всех времён
> D
Без имён и лиц
> C
Мы уже не ждем,
> H
Что проснётся бриз!
> Em Hm Hm-1
Штиль- сходим с ума
> Am Em
Жара пахнет чёрной смолой
Смерть одного лишь нужна
И мы, мы вернёмся домой!
Его плоть и кровь
Вновь на сытит нас
А за смерть ему
Может, Бог воздаст!
> Em C H
Что нас ждёт, море хранит молчанье
Жажда жить сушит сердца до дна
Только жизнь здесь ничего не стоит
Жизнь других, но не твоя!
Нет, гром не грянул с небес
Когда пили кровь как зверьё.
Но нестерпимым стал блеск
Креста, что мы Южным зовем...
И в последний миг
Поднялась волна,
И раздался крик:
"Впереди Земля"
!Небольшое пояснение:
> Hm-1
1|----2------------ \
2|----2------------ \
3|----2-------4---- \ ЭТО АККОРД, ТАК ЧТО ЗАЖИМАТЬ ВСЁ СРАЗУ!!!
4|----2-------4---- / НАДЕЮСЬ ПОНЯТНО. НУ ЭТО ПРОСТО ПАЛЕЦ УБИРАЕШЬ СО
5|----2------------ / ВТОРОЙ СТРУНЫ С ТРЕТЬЕГО ЛАДА, И ПОЛУЧАЕТЬСЯ ТАКОЙ
6|----2------------ / АККОРД!!!
-
>Em D Dsus4 D
(1)Штиль... Ветер молчит,
> Am Em
Упал белой чайкой на дно,
Штиль... Наш корабль забыт,
Один в мире, скованном сном.
> С D
Переход 1:Между всех времен, без имен и лиц,
> С D
Мы уже не ждем, что проснется бриз.
(2)Штиль... Сходим с ума,
Жара пахнет черной смолой,
Cмерть одного лишь нужна,
И мы, мы вернемся домой.
Переход 2:Его плоть и кровь вновь насытят нас,
А за смерть ему, может, Бог воздаст!
> E5 F#5 G5 G5 A5 H5 C5 F#5 H5 A5
Припев:Что нас ждет? Мо-ре хра-нит мол-ча-нье,
>E5 F#5 G5 G5 A5 H5 C5 A5 H5
Жаж-да жить су-шит серд-ца до дна,
> E5 F#5 G5 G5 A5 H5 C5 F#5 H5 A5
Толь-ко жизнь здесь ни-че-го не сто-ит,
>E5 F#5 G5 C5 H5 A5 H5
Жизнь дру--гих, но не тво-я!
(3)Нет, гром не грянул с небес,
Когда пили кровь, как зверье,
Но нестерпимым стал блеск
Креста, что мы Южным зовем.
Переход 3:И в последний миг поднялась волна,
И раздался крик: "ВПЕРЕДИ ЗЕМЛЯ!"
!Припев
-
!Один из первоначальных вариантов песни "Штиль"
!(Взято из книги Маргариты Пушкиной)
!Музыка скорее всего та же, что и в официальной версии.
Штиль - ветер молчит,
Молчит, затаясь, глубина.
Штиль - нет ни капли воды,
Хотя за бортом океан.
Между всех времен,
Без имен и лиц,
Мы уже не ждем,
Что проснется бриз.
Штиль - сходим с ума,
Жара пахнет черной смолой,
Смерть одного лишь нужна,
И мы, мы вернемся домой!
И моряк-бунтарь
Жертвой выбран был,
Пальцем тронул сталь,
И сам вены вскрыл...
Море ждет - жертву приносим морю,
А взамен море нам дарит жизнь,
Только жизнь здесь так немного стоит,
Море ждет...
Так что, держись!
Да, мы остальсь в живых,
Та кровь нас от смерти спасла,
Но что, что мы скажем святым,
Спустив шлюпки на небеса?!
Что в последний миг
Он открым глаза,
Крикнул нам из тьмы:
"Впереди земля!"?
!Дальше должен был идти речитатив,
!который Виталий Дубинин должен был читать замогильным
!голосом (что-то вроде "and then was born the seventh
!son of the seventh son"):
!Первый вариант речитатива:
В порту сказали, что чуму
Мы в темных трюмах привезли,
Корабль предан был огню,
Все мы по свету разбрелись.
А наш безумный капитан
Стремился к морю поутру,
Чтобы соленая вода
Смывала кровь с дрожащих рук.
!Второй вариант речитатива:
В порту нам сказали,
Что мы прокляты морем,
Ночью кто-то поджег корабль.
Удалось спастись всем...
Кроме капитана.
!Но потом Дубинин решил вообще убрать речитатив.
-
> Dm C С5 С
(1)Штиль. Ветер молчит,
> Gm Dm
Упал белой чайкой на дно
> Dm C С5 С
Штиль. Наш корабль забыт
> Gm Dm
Один в мире скованным сном.
> B C С5 С
Pre-Chorus:Между всех времен без имен и лиц
> B A
Мы уже не ждем, что проснется бриз
(2)Штиль. Сходим с ума,
Жара пахнет чёрной смолой
Смерть одного лишь нужна
И мы вернёмся домой.
Pre-Chorus:Его плоть и кровь вновь насытят нас
А за смерть ему может Бог воздаст.
> Dm B A
Припев:Что нас ждет море хранит молчанье
> Dm B A
Жажда жить сушит сердца до дна
> Dm B A
Только жизнь здесь ничего не стоит
> Dm B A
Жизнь других, но не твоя
(3)Нет, гром не грянул с небес
Когда пили кровь как зверьё
Но нестерпимым стал блеск
Креста, что мы южным зовем
И в последний миг поднялась волна
И раздался крик: «Впереди земля".
!Припев. } 2раза
!Все аккорды ставить на барре!!!
!<С5> Как <С> на барре, только мизинец на лад дальше (на 4-ый)!
-
! [1 2 3 4 5 6]
!Строй: E B G D A E
!Размер: 3/4
!Темп: 109 bpm
Вступление:|--------5--5-5-5-5-|--5--5-5-5-5-5--5-5-5-5-|--5--5-5-5-5-5--5-5-5-5-|--5--5-5-5-5-5--5-5-5-5-|
|--------6--6-6-6-6-|--6--6-6-6-6-6--6-6-6-6-|--6--6-6-6-6-6--6-6-6-6-|--6--6-6-6-6-6--6-6-6-6-|
|--------7--7-7-7-7-|--7--7-7-7-7-7--7-7-7-7-|--7--7-7-7-7-7--7-7-7-7-|--7--7-7-7-7-7--7-7-7-7-|
|-------------------|------------------------|------------------------|------------------------|
|-------------------|------------------------|------------------------|------------------------|
|-------------------|------------------------|------------------------|------------------------|
Куплет:|--5--5-5-5-5-5--5-5-5-5-|--5--5-5-5-5-5--5-5-5-5-|--3--3-3-3-3-3--3-3-3-3-|--3--3-3-3-3-3--3-3-3-3-
|--6--6-6-6-6-6--6-6-6-6-|--6--6-6-6-6-6--6-6-6-6-|--5--5-5-5-5-5--5-5-5-5-|--5h-6-6-6-6-6--5-5-5-5-
|--7--7-7-7-7-7--7-7-7-7-|--7--7-7-7-7-7--7-7-7-7-|--5--5-5-5-5-5--5-5-5-5-|--5--5-5-5-5-5--5-5-5-5-
|------------------------|------------------------|------------------------|------------------------
|------------------------|------------------------|------------------------|------------------------
|------------------------|------------------------|------------------------|------------------------
|--3--3-3-3-3-3--3-3-3-3-|--3--3-3-3-3-3--3-3-3-3-|--5--5-5-5-5-5--5-5-5-5-|--5--5-5-5-5-5--5-5-5-5-
|--3--3-3-3-3-3--3-3-3-3-|--3--3-3-3-3-3--3-3-3-3-|--6--6-6-6-6-6--6-6-6-6-|--6--6-6-6-6-6--6-6-6-6-
|--0--0-0-0-0-0--0-0-0-0-|--0--0-0-0-0-0--0-0-0-0-|--7--7-7-7-7-7--7-7-7-7-|--7--7-7-7-7-7--7-7-7-7-
|------------------------|------------------------|------------------------|------------------------
|------------------------|------------------------|------------------------|------------------------
|------------------------|------------------------|------------------------|------------------------
Припев:(акустическая гитара)
|--1--1-1-1-1-1--1-1-1-1-|--1--1-1-1-1-1--1-1-1-1-|--3--3-3-3-3-3--3-3-3-3-|--3--3-3-3-3-3--3-3-3-3-
|--3--3-3-3-3-3--3-3-3-3-|--3--3-3-3-3-3--3-3-3-3-|--3--3-3-3-3-3--3-3-3-3-|--3--3-3-3-3-3--3-3-3-3-
|--3--3-3-3-3-3--3-3-3-3-|--3--3-3-3-3-3--3-3-3-3-|--5--5-5-5-5-5--5-5-5-5-|--5--5-5-5-5-5--5-5-5-5-
|------------------------|------------------------|------------------------|------------------------
|------------------------|------------------------|------------------------|------------------------
|------------------------|------------------------|------------------------|------------------------
Припев:(электрическая гитара)
|---------------|---------------|---------------|
|---------------|---------------|---------------|
|--3------------|--3------------|--5------------|
|--3------------|--3------------|--5------------|
|--1------------|--1------------|--3------------|
|---------------|---------------|---------------|
Припев:|----------------------|-----------------|---------------|---------------|------------------|
|----------------------|-----------------|---------------|---------------|------------------|
|----2--2-2--2---------|--3--------------|--3------------|--5------------|------------2-----|
|--5-0--0-0--0-5--5-5--|--3----------3-3-|--3------------|--5------------|--------5-5-0--5--|
|--3-----------3--3-3--|--1----------1-1-|--1------------|--3------------|--------3-3----3--|
|----------------------|-----------------|---------------|---------------|------------------|
|----------------------|---------------------|----------------|----------------|
|--3------3--3------3--|--3------3-----------|----------------|----------------|
|--2--2-2-2--2--2-2-2--|--2--2-2-2--2--3--2--|--3-------------|--2-------------|
|--0--0-0-0--0--0-0-0--|--0--0-0-0--2--3-----|--3------2------|--2------2------|
|----------------------|---------------------|--1------0------|---------0------|
|----------------------|---------------------|----------------|----------------|
|----------------------|---------------------|----------------|-------------------|
|--3------3--3------3--|--3------3-----------|----------------|-------------------|
|--2--2-2-2--2--2-2-2--|--2--2-2-2--2--3--2--|--3-------------|--2----------2-----|
|--0--0-0-0--0--0-0-0--|--0--0-0-0--2--3-----|--3------2------|--2------5-5-0--5--|
|----------------------|---------------------|--1------0------|---------3-3----3--|
|----------------------|---------------------|----------------|-------------------|
|----------------------|---------------------|----------------|----------------|
|--3------3--3------3--|--3------3-----------|----------------|----------------|
|--2--2-2-2--2--2-2-2--|--2--2-2-2--2--3--2--|--3-------------|--2-------------|
|--0--0-0-0--0--0-0-0--|--0--0-0-0--2--3-----|--3------2------|--2------2------|
|----------------------|---------------------|--1------0------|---------0------|
|----------------------|---------------------|----------------|----------------|
|----------------------|---------------------|----------------|---------------|--------------|
|--3------3--3------3--|--3------3-----------|----------------|---------------|--------------|
|--2--2-2-2--2--2-2-2--|--2--2-2-2--2--3--2--|--3-------------|--2------------|--------------|
|--0--0-0-0--0--0-0-0--|--0--0-0-0--2--3-----|--3------2------|--2------------|--------------|
|----------------------|---------------------|---------0------|---------------|--------------|
|----------------------|---------------------|----------------|---------------|--------------|
!Сопровождение соло:
|--------------------|
|--------------------|
|--2--2--2--2--2--2--|
|--0--0--0--0--0--0--|
|--------------------|
|--------------------|
|--------------------|---------------|--------------|--------------------|--------------------|
|--------------------|---------------|--------------|--3--3--3--3--3--3--|--3--3--3--3--3--3--|
|--2--2--2--2--2--2--|---------------|--------------|--0--0--0--0--0--0--|--0--0--0--0--0--0--|
|--0--0--0--0--0--0--|--3------------|--------------|--------------------|--------------------|
|--------------------|--1------------|--------------|--------------------|--------------------|
|--------------------|---------------|--------------|--------------------|--------------------|
|---------------|--------------|--------------------|--------------------|---------------|
|---------------|--------------|--------------------|--------------------|---------------|
|--2------------|--------------|--2--2--2--2--2--2--|--2--2--2--2--2--2--|---------------|
|--0------------|--------------|--0--0--0--0--0--0--|--0--0--0--0--0--0--|--3------------|
|---------------|--------------|--------------------|--------------------|--1------------|
|---------------|--------------|--------------------|--------------------|---------------|
|--------------|--------------------|--------------------|---------------|--------------|
|--------------|--3--3--3--3--3--3--|--3--3--3--3--3--3--|---------------|--------------|
|--------------|--0--0--0--0--0--0--|--0--0--0--0--0--0--|--2------------|--------------|
|--------------|--------------------|--------------------|--0------------|--------------|
|--------------|--------------------|--------------------|---------------|--------------|
|--------------|--------------------|--------------------|---------------|--------------|
|----------------|----------------|----------------|----------------|------------------|
|----------------|----------------|----------------|----------------|--3------3----3-3-|
|--2------2------|--2------2------|----------------|----------------|--0------0----0-0-|
|--0------0------|--0------0------|--3------3------|--3------3------|------------------|
|----------------|----------------|--1------1------|--1------1------|------------------|
|----------------|----------------|----------------|----------------|------------------|
|----------------|---------------|
|--3------3------|---------------|
|--0------0------|--2------------|
|----------------|--0------------|
|----------------|---------------|
|----------------|---------------|
Соло:|----------------|----------------|----------------|
|--3------3------|--3------3------|---------3------|
|----------------|----------------|--3-------------|
|----------------|----------------|----------------|
|----------------|----------------|----------------|
|----------------|----------------|----------------|
|--1------------|--3-1---------3-1---------|--3-1---------------3--|-----------------0-1-3-|
|---------------|------3-1---------3-1-----|------3-1--------3-----|--1------------3-------|
|---------------|----------3-2---------3-2-|----------3-2-3--------|----2------------------|
|---------------|--------------------------|-----------------------|------0----------------|
|---------------|--------------------------|-----------------------|-----------------------|
|---------------|--------------------------|-----------------------|-----------------------|
|--5------0-1-3-6--5----|----------------|----------------|----------------|----------------|
|-------3---------------|--3------3------|--3------3------|---------3------|---------3------|
|-----------------------|----------------|----------------|--3-------------|--3-------------|
|-----------------------|----------------|----------------|----------------|----------------|
|-----------------------|----------------|----------------|----------------|----------------|
|-----------------------|----------------|----------------|----------------|----------------|
|--3-1---------3-1---------|--3-1---------------3--|-----------------|
|------3-1---------3-1-----|------3-1--------3-----|--1--------------|
|----------3-2---------3-2-|----------3-2-3--------|----2------------|
|--------------------------|-----------------------|------0----------|
|--------------------------|-----------------------|-----------------|
|--------------------------|-----------------------|-----------------|
|--10-8-8---------------------------------------------------|--10-------------|----------------|
|---------10-10-8-8-----------------------------------------|-----------------|--6-------------|
|-------------------10-10-9-9-7-7---------------------------|----------7------|---------7------|
|---------------------------------10-10-7-7-----------------|-----------------|----------------|
|-------------------------------------------10-10-8-8-7-7-0-|-----------------|----------------|
|-----------------------------------------------------------|-----------------|----------------|
|--6-------------|---------------6--|--10-------------|--6------10------|--10------------|
|----------------|--6---------6-----|----------8------|-----------------|----------------|
|---------7------|---------7--------|-----------------|-----------------|----------------|
|----------------|------------------|-----------------|-----------------|----------------|
|----------------|------------------|-----------------|-----------------|----------------|
|----------------|------------------|-----------------|-----------------|----------------|
!Последний аккорд:
|--5-----------------|
|----6---------------|
|------7-------------|
|--0-----7-----------|
|--------------------|
|--------------------|
-
Вступление:<Dm A# H# A# Am Dm>
>Dm
(1)Штиль - ветер молчит
>A#
Упал белой чайкой на дно
>H#
Штиль - наш корабль забыт
>A# Am Am
Один, в мире скованном сном...
!(переход на тех же аккордах)
Переход:Между всех времен
Без имен и лиц
Мы уже не ждем,
Что проснется бриз!
!<С> (с баррэ на ладу) <С7> (так же)
(2)Штиль - сходим с ума
Жара пахнет черной смолой
Смерть одного лишь нужна
И мы, мы вернемся домой!
Переход:Его кровь и плоть
вновь насытит нас
А за смерть ему
Может, Бог воздаст!
Припев:Что нас ждет, море хранит молчанье
Жажда жить сушит сердца до дна
Только жизнь здесь ничего не стоит
Жизнь других, но не твоя!
(3)Нет, гром не грянул с небес
Когда пили кровь как зверье
Но нестерпимым стал блеск
Креста, что мы Южным зовем...
Переход:И в последний миг
Поднялась волна,
И раздался крик:
"Впереди Земля!"
!Припев } x2
-
> Hm G
(1)Штиль - ветер молчит
> A Hm
Упал белой чайкой на дно
Штиль - наш корабль забыт
Один, в мире скованном сном...
> G
Переход:Между всех времен
> A(V)
Без имен и лиц
> G
Мы уже не ждем,
> A(V)
Что проснется бриз!
(2)Штиль - сходим с ума
Жара пахнет черной смолой
Смерть одного лишь нужна
И мы, мы вернемся домой!
Переход:Его кровь и плоть
вновь насытит нас
А за смерть ему
Может, Бог воздаст!
> Hm G F#
Припев:Что нас ждет, море хранит молчанье
Жажда жить сушит сердца до дна
Только жизнь здесь ничего не стоит
> Hm A(V)
Жизнь других, но не твоя!
(3)Нет, гром не грянул с небес
Когда пили кровь как зверье
Но нестерпимым стал блеск
Креста, что мы Южным зовем...
Переход:И в последний миг
Поднялась волна,
И раздался крик:
"Впереди Земля!"
!Припев } x2
-
> Dm C
Штиль - ветер молчит,
> G Gm Dm
Упал белой чайкой на дно.
Штиль - наш корабль забыт
Один, в мире скованном сном.
> B
Между всех времен,
> C
Без имен и лиц,
> B
Мы уже не ждем,
> Am
Что проснется бриз!
Штиль - сходим с ума,
Жара пахнет черной смолой.
Смерть одного лишь нужна,
И мы, мы вернемся домой!
Его кровь и плоть
Вновь насытит нас
А за смерть ему
Может, Бог воздаст!
> Dm B A
Что нас ждет, море хранит молчанье,
Жажда жить сушит сердца до дна.
Только жизнь здесь ничего не стоит,
Жизнь других, но не твоя!
Нет, гром не грянул с небес,
Когда пили кровь как зверье.
Но нестерпимым стал блеск
Креста, что мы Южным зовем.
И в последний миг
Поднялась волна,
И раздался крик:
"Впереди Земля!"
Что нас ждет, море хранит молчанье,
Жажда жить сушит сердца до дна.
Только жизнь здесь ничего не стоит,
Жизнь других, но не твоя!
Документ
Категория
Ноты, аккорды
Просмотров
34
Размер файла
28 Кб
Теги
штиль, ария
1/--страниц
Пожаловаться на содержимое документа