close

Вход

Забыли?

вход по аккаунту

?

АукцЫон - Лиза

код для вставкиСкачать
Лиза
> Em Em G G D D Em
E|-------|-------|-------|-------|-------|-------|-------|-------|-
B|-------|-------|-------|-------|-------|-------|-------|-------|-
G|4-----4|-------|-------|-------|-------|-------|-------|-------|-
D|-------|5------|----5--|4-5-4-5|4-----4|2------|-------|-------|-
A|-------|-------|-------|-------|-------|-------|-------|-------|-
E|-------|-------|-------|-------|-------|-------|-------|-------|-
> Em D Em D
Сядь рядом, спой песню, Лиза.
Спой песню, спой тихо, я помолчу.
Ты можешь все, Лиза-подлиза,
> Em D Em D G Em
Ты хочешь знать, о, Лиза, чего я хочу...
> Am G Em
Если можешь дай ты мне,
> Am G Em Am G Em
Ты обещай мне,
> Am
Подари мне:
> G Em Am
Звезду, и не одну,
> G Em Am
Мечту, и не одну,
>G Em Am
Одну, и не одну...
> G Em
Весну... -
> Am
Я хочу луну!
>Em Em G G D D D Em
>D
> Em D Em D
Спой мне про то, как любила,
Как мы гуляли на Крюков канал.
Уехал милый в сторону Нила,
Ну что нам СПИД,
Да мало ли чем я хворал...
Если можешь дай ты мне,
Ты обещай мне,
Подари мне:
Звезду, и не одну,
Мечту, и не одну,
Одну, и не одну...
Весну... -
Я хочу луну!
> Em Am Em Am
A|2-222-222-2----|0------|-------|2-222-222-2----|0------|-------|-
E|-------|-------|-------|-------|-------|-------|----0--|-------|-
>Em Am Em
О, Лиза, Лиза...
> Am
О, Лиза, Лиза...
Документ
Категория
Ноты, аккорды
Просмотров
5
Размер файла
2 Кб
Теги
аукцыон, лиза
1/--страниц
Пожаловаться на содержимое документа