close

Вход

Забыли?

вход по аккаунту

?

АукцЫон - Седьмой

код для вставкиСкачать
* ПТИЦА * (1993)
Седьмой
Вначале бас:A|2-----2--|3-----3--|4-----4--|5-----5--|2--
E|----0---0|----0---0|----0---0|----0---0|---
>Em Cm Hm
Седьмой, седьмой, отвечай, седьмой,
> H7 Em Cm Hm H7
Я тебя не слышу. Почему молчишь?
За окном чужой, но встал герой и вышел.
У волка ночь, у героя меч,
За горами Волга, холод за спиной.
Ничего не жалко, ничего надолго.
> C Em
Гдееееееее еще?
> C Em
Чтоооооооо еще?
> C Em G* Cm Hm
Яяяяяяяяя еще!
> G*
-|----3-2-0|-
-|---------|-
-|--0------|-
-|0--------|-
-|---------|-
-|---------|-
Труба зовет, герой идет, звенит кольчуга.
Только злится вьюга и ветер гонит прочь.
Не уйти надолго, не найти друг друга.
День как день, ночь как ночь!
Где еще? Что еще? Я еще!
!далее идет следующая тема:
> Em Hm
-|---------|---------|---------|---------|-
-|0---0----|0---0----|---------|---------|-
-|--0-----0|--0-----0|---------|---------|-
-|------2--|------2--|4---4----|4---4----|-
-|---------|---------|--5-----5|--5-----5|-
-|---------|---------|------7--|------7--|-
>Em Hm
Седьмой, седьмой, отвечай, седьмой,
> Em Hm
Я тебя не слышу. Почему молчишь?
За окном чужой, но встал герой и вышел.
Седьмой, седьмой, не надо бы,
Седьмой, седьмой, а может быть,
Седьмой, седьмой, а если бы,
Седьмой, седьмой, ну если бы.
Надо бы, надо бы! Если бы я!
Примечание:Размер 5/4. В куплете желательно держать
шестую струну открытой (то есть <Em Cm/E Hm/E H7/E>)
Документ
Категория
Ноты, аккорды
Просмотров
2
Размер файла
2 Кб
Теги
аукцыон, седьмой
1/--страниц
Пожаловаться на содержимое документа